PrimaNota.ru - самый крупный в мире бесплатный архив песенных текстов, аккордов, табулатур и нот


Outlaws - South Carolina - таба, видео

Регистрация Запомнить меня
Войти через:  Facebook Google Twitter Vk Yandex Mail.ru

Outlaws - South Carolina - таба, видео

Печатать
Просмотров: 30
-------------------------------------------------------------------------------------------------------
                             South Carolina - The Outlaws
                                 Lady in Waiting-1976
                             Words and Music by Henry Paul
-------------------------------------------------------------------------------------------------------
Tabbed by:Duane Baldwin
E-mail: duaneandjulie@gmail.com

Guitar I- outro solos

Guitar II- 1st and 2nd solo and outro solos

Tuning: Standard

Guitar I (Clean)

Intro


     wtw                     wth      e    e   e    e
e|----5----|-------------|----5----|-------2------------|
B|----5----|-------------|----5----|-----------5--------|
G|----2----|-------------|----2----|--4b-----------4br--|
D|----2----|-------------|----2----|--------------------|
A|----0----|-------------|----0----|--------------------|
E|---------|-------------|---------|--------------------|


1st Verse

    e   s   s  sr  s   s  sr  s  sr  s   e   s   e     s   s  sr  s   s  sr  s  sr  s   e   s   e
e|----------2------2---2------2------2---2---2---2--|------2------2---2------2------2---2---2---2--|
B|----------3------3---3------3------3---3---3---3--|------3------3---3------3------3---3---3---3--|
G|--2-------2------2---2------2------2---2---2---2--|------2------2---2------2------2---2---2---2--|
D|------0-------------------------------------------|--0-------------------------------------------|
A|--------------------------------------------------|----------------------------------------------|
E|--------------------------------------------------|----------------------------------------------|


    e   e   s  s  s   e   s   e   s s   s   sts   s   e   s s   s   e   s   e   s s   e
e|---------------------------------------------|-----------------------------------------|
B|---------------------------------------------|-----------------------------------------|
G|--2-----------------2---2-----------------2--|--2-----------------2---2----------------|
D|------3---------2-----------4---------2------|------3---------2-----------4---------2--|
A|----------3p4-------------------3h4----------|----------3p4-------------------3h4------|
E|---------------------------------------------|-----------------------------------------|


    s   s  sr  s   s  sr  s  sr  s   e   s   e     s   s  sr  s   s  sr  s  sr  s   e   s   e
e|------2------2---2------2------2---2---2---2--|------2------2---2------2------2---2---2---2--|
B|------3------3---3------3------3---3---3---3--|------3------3---3------3------3---3---3---3--|
G|------2------2---2------2------2---2---2---2--|------2------2---2------2------2---2---2---2--|
D|--0-------------------------------------------|--0-------------------------------------------|
A|----------------------------------------------|----------------------------------------------|
E|----------------------------------------------|----------------------------------------------|


    e   e   s  s  s   e   s   e   s s   s   sts   s   e   s s   s   e   s   e   s s   e
e|---------------------------------------------|-----------------------------------------|
B|---------------------------------------------|-----------------------------------------|
G|--2-----------------2---2-----------------2--|--2-----------------2---2----------------|
D|------3---------2-----------4---------2------|------3---------2-----------4---------2--|
A|----------3p4-------------------3h4----------|----------3p4-------------------3h4------|
E|---------------------------------------------|-----------------------------------------|


1st Chorus


    e   s e   s   s   s   e   s e   s   s   s     e   s s   e  .e   s   s   s   s   s   s   s
e|---------------------------------------------|--2-------------0------------------------------|
B|------2h3---3---3---3-------2h3---3---3---3--|--3---------3---0------------------------------|
G|------4-4---4---4---4-------3-3---4---4---4--|--2---0h2-------1------------------------------|
D|--4---4-4---4---4---4---4---4-4---4---4---4--|--0-------------2-----------------------0---2--|
A|--2---------------------2--------------------|----------------------------0---2---4----------|
E|---------------------------------------------|--------------------0---2----------------------|


    e   s e   s   s   s   e   s e   s   s   s     e     e     e     hte
e|---------------------------------------------|--------------------------|
B|------2h3---3---3---3-------2h3---3---3---3--|--------------------------|
G|------4-4---4---4---4-------3-3---4---4---4--|--7-----7-----7-----9-----|
D|--4---4-4---4---4---4---4---4-4---4---4---4--|--7-----7-----7-----9-----|
A|--2---------------------2--------------------|--5-----5-----5-----7-----|
E|---------------------------------------------|--------------------------|


1st Solo

    er  s  er  s  er  s  er  qts     er   s  er  s  er  s  er  qts
e|------5------3------2-------0----|------5------3------2-------0----|
B|------5------3------2-------0----|------5------3------2-------0----|
G|------6------4------3-------1----|------6------4------3-------1----|
D|------7------5------4-------2----|------7------5------4-------2----|
A|---------------------------------|---------------------------------|
E|---------------------------------|---------------------------------|


2nd Verse


     e   s   s   s s   s  .e   e   s s   e   ste   e   s s   s   .e   e  s s   s   e 
e|----------------------------------------------|--------------------------------------|
B|----------------------------------------------|--------------------------------------|
G|-------------------------2-----------------2--|----------------2-----------------2---|
D|---------------------2---2---4---------2---2--|--4---------2---2---4---------2---2---|
A|---0---0---0---3h4---------------3h4----------|------3h4---------------3h4-----------|
E|----------------------------------------------|--------------------------------------|


    e   s   s   s s   s  .e   e   s s   e   ste   e   s s   s   .e   e  s s   s   e 
e|----------------------------------------------|--------------------------------------|
B|----------------------------------------------|--------------------------------------|
G|-------------------------2-----------------2--|----------------2-----------------2---|
D|---------------------2---2---4---------2---2--|--4---------2---2---4---------2---2---|
A|---0---0---0---3h4---------------3h4----------|------3h4---------------3h4-----------|
E|----------------------------------------------|--------------------------------------|


     e   s   s   s s   s  .e   e   s s   e   ste   e   s s   s   .e   e  s s   s   e 
e|----------------------------------------------|-------------------------------------|
B|-------------------------2-----------------3--|----------------2-----------------2--|
G|---------------------2---3---4---------2------|--4---------2---3---4---------2------|
D|---0---0---0---3h4---------------3h4----------|------2h3---------------3h4----------|
A|----------------------------------------------|-------------------------------------|
E|----------------------------------------------|-------------------------------------|


     e   s   s   s s   s  .e   e   s s   e   ste   e   s   s   s s   e   s s   s   s s   s   s  s 
e|----------------------------------------------|-------------------------------------------------|
B|----------------------------------------------|-------------------------------------------------|
G|-------------------------2-----------------2--|------------------------------2---------2--------|
D|---------------------2---2---4---------2---2--|--------------------2----------------------------|
A|---0---0---0---3h4---------------3h4----------|--0---0---0---3h4-------3h4-------3h4-------3h4--|
E|----------------------------------------------|-------------------------------------------------|


     e   s   s   s s   s  .e   e   s s   e   ste   e   s s   s   .e   e  s s   s   e 
e|----------------------------------------------|-------------------------------------|
B|-------------------------2-----------------3--|----------------2-----------------2--|
G|---------------------2---3---4---------2---2--|--4---------2---3---4---------2------|
D|---0---0---0---3h4---------------3h4----------|------2h3---------------3h4----------|
A|----------------------------------------------|-------------------------------------|
E|----------------------------------------------|-------------------------------------|


     e   s   s   s s   s  .e   e   s s   e   ste   e   s s   s   e   s   e   e   e 
e|----------------------------------------------|------------------------------------|
B|----------------------------------------------|------------------------------------|
G|-------------------------2-----------------2--|----------------2-------------------|
D|---------------------2---2---4---------2---2--|--4---------2---2-------------------|
A|---0---0---0---3h4---------------3h4----------|------3h4-------------------0---1---|
E|----------------------------------------------|--------------------0---4-----------|


2nd Chorus


    e   s e   s   s   s   e   s e   s   s   s     e   s s   e  .e   s   s   s   s   s   s   s
e|---------------------------------------------|--2-------------0------------------------------|
B|------2h3---3---3---3-------2h3---3---3---3--|--3---------3---0------------------------------|
G|------4-4---4---4---4-------3-3---4---4---4--|--2---0h2-------1------------------------------|
D|--4---4-4---4---4---4---4---4-4---4---4---4--|--0-------------2-----------------------0---2--|
A|--2---------------------2--------------------|----------------------------0---2---4----------|
E|---------------------------------------------|--------------------0---2----------------------|


    e   s e   s   s   s   e   s e   s   s   s     e     e     e     hteth
e|---------------------------------------------|--------------------------|
B|------2h3---3---3---3-------2h3---3---3---3--|--------------------------|
G|------4-4---4---4---4-------3-3---4---4---4--|--7-----7-----7-----9-----|
D|--4---4-4---4---4---4---4---4-4---4---4---4--|--7-----7-----7-----9-----|
A|--2---------------------2--------------------|--5-----5-----5-----7-----|
E|---------------------------------------------|--------------------------|


2nd Solo- drop tempo from 128 bpm to 86 bpm 

   
   .qr    s   s      q   q   e   e   q      q   q   e   e   q        e   e   q   e   e   q
e|----------------|----------------------|------------------------|--------------------------|
B|----------------|----------------------|------5-----------2-----|----------------------2---|
G|----------------|------2-----------2---|------4-----------3-----|----------2-----------3---|
D|----------------|------2-----------2---|------2-----------0-----|----------2-----------0---|
A|----------------|--0---0---0---0---0---|--0-------0---0---------|--0---0---0---0---0-------|
E|--------0---2---|----------------------|------------------------|--------------------------|

                             Progress evenly back to 123 bpm 
    e   e   q   e   e   q      e   e   e   e   e   e   e   e     e   e   e   e   e   e   e   e
e|--------------------------|---------------------------------|---------------------------------|
B|----------5-----------2---|--------------------------3---3--|--------------------------3---3--|
G|----------4-----------3---|------2-------2-------2---2---2--|------2-------2-------2---2---2--|
D|----------2-----------0---|--2---2---2---2---2---2---2---2--|--2---2---2---2---2---2---2---2--|
A|--0---0-------0---0-------|--0---0---0---0---0---0----------|--0---0---0---0---0---0----------|
E|--------------------------|---------------------------------|---------------------------------|


    e   e   s   s   e   s   s   e   e   e     e   e   s   s   e   s   s   e   e   e
e|-----------------------------------------|-----------------------------------------|
B|----------------------------------3---3--|----------------------------------3---3--|
G|------2-----------2-----------2---2---2--|------2-----------2-----------2---2---2--|
D|--2---2---2---2---2---2---2---2---2---2--|--2---2---2---2---2---2---2---2---2---2--|
A|--0---0---0---0---0---0---0---0----------|--0---0---0---0---0---0---0---0----------|
E|-----------------------------------------|-----------------------------------------|


    er   s  er  s  er s  er  qts     er   s  er  s  er s  er  .e   e
e|--------------------------------|-----------------------------------|
B|-------3------2-----------------|-------3------2--------------------|
G|-------2------2-----4-------2---|-------2------2-----4-------2---2--|
D|--------------------4-------2---|--------------------4-------2---2--|
A|----------------------------0---|----------------------------0---0--|
E|--------------------------------|-----------------------------------|


3rd Verse


    er  e   s s   s   e  .e   s s   s   sts   e   s   e   s s   s   e    e  s s   s   ste 
e|-----------------------------------------|----------------------------------------------|
B|-----------------------------------------|----------------------------------------------|
G|------2-------------2---2-------------2--|--2---2---2-------------2-----------------2---|
D|----------------2-----------------2------|--------------------2-------4---------2-------|
A|----------3h4---------------3h4----------|--------------3h4---------------3h4-----------|
E|-----------------------------------------|----------------------------------------------|


    e   s s   s   e  .e   s s   s   sts   e   s s   s   e    e  s s   s   e 
e|-------------------------------------|--------------------------------------|
B|-------------------------------------|--------------------------------------|
G|--2-------------2---2-------------2--|--2-------------2-----------------2---|
D|------------2-----------------2------|------------2-------4---------2-------|
A|------3h4---------------3h4----------|------3h4---------------3h4-----------|
E|-------------------------------------|--------------------------------------|


    e   s  er   s  sr  .e   e   s s s   sr    e   s  er   s  sr  .e   e   e   e
e|-----------------------------------------|------------------------------3---3---|
B|------3-------3------3----3-----------3--|------3-------3------3----3---2---2---|
G|------2-------2------2----2--------------|------2-------2------2----2---3---3---|
D|--0---0-------0------0----0---0h3h4------|--0---0-------0------0----0---0---0---|
A|-----------------------------------------|--------------------------------------|
E|-----------------------------------------|--------------------------------------|


    e   e   s s   s   e  .e   s s   s   sts   e   s   e   s s   s   e    e   e  s s    
e|-----------------------------------------|------------------------------------------|
B|-----------------------------------------|------------------------------------------|
G|--2---2-------------2---2-------------2--|--2---2---2-------------2-----------------|
D|----------------2-----------------2------|--------------------2-------4-------------|
A|----------3h4---------------3h4----------|--------------3h4---------------0---3h4---|
E|-----------------------------------------|------------------------------------------|


    e   e  sr   s  qr  e  sr  s  er     er  e  er   s  qr  e  sr  s   er
e|-----------------------------------|-------------------------------------|
B|------3-------3------3------3------|------3-------3------3------3--------|
G|------2-------2------2------2------|------2-------2------2------2--------|
D|--0---0-------0------0------0------|------0-------0------0------0--------|
A|-----------------------------------|-------------------------------------|
E|-----------------------------------|-------------------------------------|


    e   s s   s   e   s   s   s s   s   e     e   s s   s   e    e   e   e  s e   
e|-----------------------------------------|--------------------------------------|
B|-----------------------------------------|--------------------------------------|
G|--2-------------2---------------------2--|--------------------2-----------------|
D|------------2-------4---2---------2------|------------2---4-------4---2---------|
A|------3h4-------------------3h4----------|--0---3h4-----------------------3h4---|
E|-----------------------------------------|--------------------------------------|


3rd Chorus/reprise chorus


    e   s e   s   s   s   e   s e   s   s   s     e   s s   e  .e   s   s   s   s   s   s   s
e|---------------------------------------------|--2-------------0------------------------------|
B|------2h3---3---3---3-------2h3---3---3---3--|--3---------3---0------------------------------|
G|------4-4---4---4---4-------3-3---4---4---4--|--2---0h2-------1------------------------------|
D|--4---4-4---4---4---4---4---4-4---4---4---4--|--0-------------2-----------------------0---2--|
A|--2---------------------2--------------------|----------------------------0---2---4----------|
E|---------------------------------------------|--------------------0---2----------------------|


    e   s e   s   s   s   e   s e   s   s   s     e   s s   e  .e   s   s   s   s   s   s   s
e|---------------------------------------------|--2-------------0------------------------------|
B|------2h3---3---3---3-------2h3---3---3---3--|--3---------3---0------------------------------|
G|------4-4---4---4---4-------3-3---4---4---4--|--2---0h2-------1------------------------------|
D|--4---4-4---4---4---4---4---4-4---4---4---4--|--0-------------2-----------------------0---2--|
A|--2---------------------2--------------------|----------------------------0---2---4----------|
E|---------------------------------------------|--------------------0---2----------------------|


    e   s e   s   s   s   e   s e   s   s   s     e   s s   e  .e   s   s   s   s   s   s   s
e|---------------------------------------------|--2-------------0------------------------------|
B|------2h3---3---3---3-------2h3---3---3---3--|--3---------3---0------------------------------|
G|------4-4---4---4---4-------3-3---4---4---4--|--2---0h2-------1------------------------------|
D|--4---4-4---4---4---4---4---4-4---4---4---4--|--0-------------2-----------------------0---2--|
A|--2---------------------2--------------------|----------------------------0---2---4----------|
E|---------------------------------------------|--------------------0---2----------------------|


    e   s e   s   s   s   e   s e   s   s   s     e     e     e     hte
e|---------------------------------------------|--------------------------|
B|------2h3---3---3---3-------2h3---3---3---3--|--------------------------|
G|------4-4---4---4---4-------3-3---4---4---4--|--7-----7-----7-----9-----|
D|--4---4-4---4---4---4---4---4-4---4---4---4--|--7-----7-----7-----9-----|
A|--2---------------------2--------------------|--5-----5-----5-----7-----|
E|---------------------------------------------|--------------------------|


Outro (slight overdrive on solo/ clean rhythm)


       e      e     s    s   s     e     e      s     s   s
e|----------------------------------------------------------|
B|----------------------------------------------------------|
G|---4b3q---4b3q---4p2-----------4b3q---4b3q---4p2----------|
D|-----------------------4---2-----------------------4---2--|
A|----------------------------------------------------------|
E|----------------------------------------------------------|


   er   s  sr  s   e  .e   s  sr  s   e   ste    e   s   e   s s   s   s   s   s   s  e
e|------8------8---8---8---8------8---5---5---|--8---5---5-------------------------------|
B|------8------8---8---8---8------8---5---5---|--8---5---5---8\7---5---7---5-------------|
G|--------------------------------------------|--------------8\7---5---7---5-------------|
D|--------------------------------------------|--------------------------------7---5--7--|
A|--------------------------------------------|------------------------------------------|
E|--------------------------------------------|------------------------------------------|


    e   s   s   s   s  sr  s   s   s   s   s   s   s   s   s
e|------------------------------------------------------------|
B|------5---7---5----------7---5---7---5----------------------|
G|--5---5---7---5----------7---5---7---5-------7-------5------|
D|------------------7----------------------7-------7-------7--|
A|------------------------------------------------------------|
E|------------------------------------------------------------|


    s   s   s   s   s   s s   s   s  s s    s   s   s   s   s   s
e|-----------------------------------------------------------------|
B|-----------------------------------------------------------------|
G|-----------------------------------------------------------------|
D|--5-------7-------5----------------------------------------------|
A|------7-------7-------7\5---3---3---5h7-------3---5---3--------5/|
E|------------------------------------------5----------------5-----|

               3                              3
   s   s   [s s   s]  s    s   s   s    s [s s  s]  s   s s    s   s
e|---------------------------------------------------------------------|
B|---------------------------------------------------------------------|
G|-------------------------------------------------------------9---11--|
D|-----5---7p5------------7---9---10---10p9p7-------7---9/11-----------|
A|/7-------------7(7)p9-------------------------9----------------------|
E|---------------------------------------------------------------------|


    s     .e    e    e    q    s    s    s    s      s  t  t    q    s  s    s   s    s   s    e    e  
e|-----------------------------------------------|-------------17---17p14---17p14------------------14-|
B|--10---13b---13---12---10---10---12---10-------|--10------x------------------------17---14----------|
G|-------------------------------------------11--|-------x-------------------------------------16-----|
D|-----------------------------------------------|----------------------------------------------------|
A|-----------------------------------------------|----------------------------------------------------|
E|-----------------------------------------------|----------------------------------------------------|


     s     s    s    s    s   s   s    s    s     s    s   s     e     e
e|----------------------------------------------------17--------19b---19b--|
B|--------------------------------17--------17---19--------19--------------|
G|--16br---14--------14---16/18--------18----------------------------------|
D|--------------16---------------------------------------------------------|
A|-------------------------------------------------------------------------|
E|-------------------------------------------------------------------------|


    e    s    s  qr  e    s    s     e    s    s  qr  e    s    s    e    e  er  e   q    s   s s  s
e|--------------------------------|--------------------------------|----------------------------------|
B|--7----7----8------7----7----8--|--7----7----8------7----7----8--|----------------------------------|
G|--7----7----7------7----7----7--|--7----7----7------7----7----7--|------2---------------------------|
D|--7----7----7------7----7----7--|--7----7----7------7----7----7--|-------------2---2-------------2--|
A|--------------------------------|--------------------------------|--0-------------------0---3h4-----|
E|--------------------------------|--------------------------------|----------------------------------|


   e    e  er  e   q    s   s s  s   s  e    s     s    s    s    e    e    s   s    .e   s
e|-------------------------------------|----------------------------------------------------|
B|-------------------------------------|-----10--------10---10---12---10---10--------10-----|
G|------2----------------------------9/|11--------11----------------------------11--------9/|
D|-------------2---2-------------2-----|----------------------------------------------------|
A|--0-------------------0---3h4--------|----------------------------------------------------|
E|-------------------------------------|----------------------------------------------------|


  s     s   s     s   s s   s   s   s s   s     s   s s   s   s
e|---------------------------------------------------------------|
B|-----10---12--------------8---8---------10---12---------8---8--|
G|11-------------11---7/9-----------7/9-------------7/9----------|
D|---------------------------------------------------------------|
A|---------------------------------------------------------------|
E|---------------------------------------------------------------|


    s s    s    s    s s   s   s   s s    s     s   s s   s   s
e|---------------------------------------------------------------|
B|---------10---10---------8---8----------10---10---------8---8--|
G|--9/11-------------7/9-----------9/11-------------7/9----------|
D|---------------------------------------------------------------|
A|---------------------------------------------------------------|
E|---------------------------------------------------------------|


    s s    s    s s   s   s   s s    s   s s   s   s
e|------------------------------------------------------------|
B|---------10---------8---8----------10---------8---8---------|
G|--9/11--------7/9-----------9/11--------7/9-----------9/11--|
D|------------------------------------------------------------|
A|------------------------------------------------------------|
E|------------------------------------------------------------|


     s   s   s  sr  s   e  sr  s   s   s  sr   s   e  sr
e|---------------------------------------------------------|
B|--10-------3------3---3--------------3-------3---3-------|
G|-----------2------2---2------x-------2-------2---2-------|
D|-------0---0------0---0------x---0---0-------0---0-------|
A|---------------------------------------------------------|
E|---------------------------------------------------------|


    s   s   s  sr  s   e  sr  s   s   s  sr   s   e  sr
e|--------------------------------------------------------|
B|----------3------3---3--------------3-------3---3-------|
G|----------2------2---2------x-------2-------2---2-------|
D|--x---0---0------0---0------x---0---0-------0---0-------|
A|--x-----------------------------------------------------|
E|--------------------------------------------------------|


   s   s   s  sr  s   e  sr  s   s   s  sr   s   e  sr
e|--------------------------------------------------------|
B|----------3------3---3--------------3-------3---3-------|
G|----------2------2---2------x-------2-------2---2-------|
D|--x---0---0------0---0------x---0---0-------0---0-------|
A|--x-----------------------------------------------------|
E|--------------------------------------------------------|


   s   s   s  sr  s   e  sr  s   s   s  sr   s   e  sr
e|--------------------------------------------------------|
B|--------------------------------------------------------|
G|--x-------2------2---2------x-------2-------2---2-------|
D|--x-------2------2---2------x-------2-------2---2-------|
A|--x---0----------0---0------x---0-----------0---0-------|
E|--------------------------------------------------------|


   s   s   s  sr  s   e  sr  s   s   s  sr   s   e  sr
e|--------------------------------------------------------|
B|--------------------------------------------------------|
G|--x-------2------2---2------x-------2-------2---2-------|
D|--x-------2------2---2------x-------2-------2---2-------|
A|--x---0----------0---0------x---0-----------0---0-------|
E|--------------------------------------------------------|


    e     e    e     e    s    e     s    e     e     s   s   .e   s   e  s   s    .e   s    e
e|--12--------------12-------------------------12--|--7----------------7/10------------------10--|
B|-------12--------------12------------------------|------7--------7----------10--------10-------|
G|------------11b-------------11br---9---11b-------|----------6b-------------------9b------------|
D|-------------------------------------------------|---------------------------------------------|
A|-------------------------------------------------|---------------------------------------------|
E|-------------------------------------------------|---------------------------------------------|

         3                          3    3
    [e    e   sr]   e    s   s   s  e    e  sr   e    s    s    s  er  .e    .e    .e    qtwtw
e|-----------------------------------------------------------|-----------------------------------|
B|-----------------------------------------------------------|-----------------------------------|
G|--4b---4b------4br---2-------------------------------------|----------6-----4-----7-----6------|
D|-------------------------4---2-----------------------------|----------7-----5-----7-----7------|
A|---------------------------------2b---2b------2br---0------|----------7-----5-----5-----7------|
E|--------------------------------------------------------2--|--0-------5-----3-----------5------|



-------------------------------------------------------------------------------------------------------
-------------------------------------------------------------------------------------------------------


Guitar II (over driven)


Intro


     wtw                     wth       sr  s   e   e   e
e|----5----|-------------|----5----|------------------------|
B|----5----|-------------|----5----|------------------------|
G|----2----|-------------|----2----|------------------------|
D|----2----|-------------|----2----|------------------------|
A|----0----|-------------|----0----|-------0---0---2---4----|
E|---------|-------------|---------|------------------------|


1st Verse


    e   s   s   s s   s   .e   e   s s  s    st    e   s s  s   .e   e   s s   e
e|----------------------------------------------|---------------------------------|
B|------------------------3------------------3--|----------------3----------------|
G|--------------------x---2----4---------x---2--|--4---------x---2---4---------2--|
D|--0---0---0---3h4----------------3h4----------|------2h3---------------3h4------|
A|----------------------------------------------|---------------------------------|
E|----------------------------------------------|---------------------------------|


    e   s   s   s s   s   e   e   s s  s    e     e   s   s   s s   s   e   e   s s  s    e    
e|---------------------------------------------|---------------------------------------------|
B|---------------------------------------------|---------------------------------------------|
G|------------------------2--------------------|------------------------2--------------------|
D|--------------------x-------4-------------2--|--------------------x-------4-------------2--|
A|--0---0---0---3h4---------------0---3h4------|--0---0---0---3h4---------------0---3h4------|
E|---------------------------------------------|---------------------------------------------|


    e   s   s   s s   s   .e   e   s s  s    st    e   s s  s   .e   e   s s   e
e|----------------------------------------------|---------------------------------|
B|------------------------3------------------3--|----------------3----------------|
G|--------------------x---2----4---------x---2--|--2---------x---2---4---------2--|
D|--0---0---0---3h4----------------3h4----------|------2h3---------------3h4------|
A|----------------------------------------------|---------------------------------|
E|----------------------------------------------|---------------------------------|


    e   s   s   s s   s   e   e   s s  s    e     e   s   s   s s   s   e   e   s s  s    e    
e|---------------------------------------------|---------------------------------------------|
B|---------------------------------------------|---------------------------------------------|
G|------------------------2--------------------|------------------------2--------------------|
D|--------------------x-------4-------------2--|--------------------x-------4-------------2--|
A|--0---0---0---3h4---------------0---3h4------|--0---0---0---3h4---------------0---3h4------|
E|---------------------------------------------|---------------------------------------------|


1st Chorus


    e   s e   s   e   e   s e   s   e     e     e    hte       e   s e   s   e   e   s e   s   e 
e|-------------------------------------|--------------------|-------------------------------------|
B|------2h3---3---3-------2h3---3---3--|--------------------|------2h3---3---3-------2h3---3---3--|
G|------4-4---4---4-------3-3---4---4--|--7---7---7---9-----|------4-4---4---4-------3-3---4---4--|
D|--4---4-4---4---4---4---4-4---4---4--|--7---7---7---9-----|--4---4-4---4---4---4---4-4---4---4--|
A|--2-----------------2----------------|--5---5---5---7-----|--2-----------------2----------------|
E|-------------------------------------|--------------------|-------------------------------------|

    
   e     e     e     hte
e|--------------------------|
B|--------------------------|
G|--7-----7-----7-----9-----|
D|--7-----7-----7-----9-----|
A|--5-----5-----5-----7-----|
E|--------------------------|


1st Solo


     s s   s   .q .e q      s s   e    e     e     e    e     s    s   e
e|----------------------|--------------------------------------------------|
B|----------------------|---------10---12---10---12b---12b---12---10-------|
G|--11p9-------9/11\9---|--9/11----------------------------------------11--|
D|---------9------------|--------------------------------------------------|
A|----------------------|--------------------------------------------------|
E|----------------------|--------------------------------------------------|


2nd Verse


     q   s s   s   .e   e   s s  s   ste   e    s s   s   .e   e   s s  e    
e|--------------------------------------|----------------------------------|
B|--10----------------------------------|----------------------------------|
G|-----------------2-----------------2--|-----------------2----------------|
D|-------------2-------4---------2------|--4----------2-------4---------2--|
A|-------3h4---------------3h4----------|-------3h4---------------3h4------|
E|--------------------------------------|----------------------------------|


    e   s   s   s s   s   .e   e  s s  s    ste   e   s s  s   .e   e   e   e    
e|---------------------------------------------|-------------------------------|
B|---------------------------------------------|-------------------------------|
G|------------------------2-----------------2--|----------------2--------------|
D|--------------------2-------4---------2------|--4---------2------------------|
A|--0---0---0---3h4---------------3h4----------|------3h4-----------0---2---4--|
E|---------------------------------------------|-------------------------------|


    e   s   s   s s   s   .e   e   s s  s   ste    e   s s  s   .e   e   s s   e
e|----------------------------------------------|---------------------------------|
B|------------------------3------------------3--|----------------3----------------|
G|--------------------2---2----4---------2------|--4---------2-------4---------2--|
D|--0---0---0---3h4----------------3h4----------|------2h3---------------3h4------|
A|----------------------------------------------|---------------------------------|
E|----------------------------------------------|---------------------------------|


    e   s   s   s s   s   e   e   s s  s    e     e   s   s   s s   s   e   e   s s  s    e    
e|---------------------------------------------|---------------------------------------------|
B|---------------------------------------------|---------------------------------------------|
G|------------------------2--------------------|------------------------2--------------------|
D|--------------------2-------4-------------2--|--------------------2-------4-------------2--|
A|--0---0---0---3h4---------------0---3h4------|--0---0---0---3h4---------------0---3h4------|
E|---------------------------------------------|---------------------------------------------|


    e   s   s   s s   s   .e   e   s s  s   ste    e   s s  s   .e   e   s s   e
e|----------------------------------------------|---------------------------------|
B|------------------------3------------------3--|----------------3----------------|
G|--------------------2--------4---------2------|--4---------2-------4---------2--|
D|--0---0---0---3h4----------------3h4----------|------2h3---------------3h4------|
A|----------------------------------------------|---------------------------------|
E|----------------------------------------------|---------------------------------|

    e   s   s   s s   s   e   s   e    s s  e     e   s   s   s s   s  .e   e   e   e
e|---------------------------------------------|---------------------------------------|
B|---------------------------------------------|---------------------------------------|
G|------------------------2---2---2---------2--|------------------------2--------------|
D|--2---2---2---------2---2---2---2---------2--|--2---2---2---------2---2--------------|
A|--0---0---0---3h4-------------------3h4------|--0---0---0---3h4---------------0---1--|
E|---------------------------------------------|----------------------------4----------|


2nd Chorus


    e   s e   s   e   e   s e   s   e     e     e    hte       e   s e   s   e   e   s e   s   e 
e|-------------------------------------|--------------------|-------------------------------------|
B|------2h3---3---3-------2h3---3---3--|--------------------|------2h3---3---3-------2h3---3---3--|
G|------4-4---4---4-------3-3---4---4--|--7---7---7---9-----|------4-4---4---4-------3-3---4---4--|
D|--4---4-4---4---4---4---4-4---4---4--|--7---7---7---9-----|--4---4-4---4---4---4---4-4---4---4--|
A|--2-----------------2----------------|--5---5---5---7-----|--2-----------------2----------------|
E|-------------------------------------|--------------------|-------------------------------------|

    
   e     e     e     htet.h
e|--------------------------|
B|--------------------------|
G|--7-----7-----7-----9-----|
D|--7-----7-----7-----9-----|
A|--5-----5-----5-----7-----|
E|--------------------------|


2nd Solo- drop tempo from 128 bpm to 86 bpm 


   .h   e   s   s  e   s s.e   s   h    sr  s e   s  tr  s  tr  s   tr  s s   t t t t t t t t t t t 
e|----------------|-------------------|---------------------------------------------------------------|
B|----------------|-------------------|-----7p5---7------7------7-------7p5---5h7p5h7p5h7p5h7p5h7p5h--|
G|--2---2---2---4/|6---6/7/9---9---9--|---------------------------------------------------------------|
D|----------------|-------------------|---------------------------------------------------------------|
A|----------------|-------------------|---------------------------------------------------------------|
E|----------------|-------------------|---------------------------------------------------------------|


   t t t t t t t t t t t t t.s    s e  s   q    er  s   s    e    s   s   s   s   s   e  sr
e|--------------------------------------------|----------------------------------------------|
B|h7p5h7p5h7p5h7p5h7p5h7p5h7p5---7p5---5---5--|-----5---7---7hb---7---5---7---5--------------|
G|--------------------------------------------|-----------------------------------7---6------|
D|--------------------------------------------|----------------------------------------------|
A|--------------------------------------------|----------------------------------------------|
E|--------------------------------------------|----------------------------------------------|

Progress evenly back to 123 bpm 
    s s   s   e     s   s s   s s   e   e   s   s     s .e  s   s   s .e   s    s    s    s   e
e|-------------------------------------------------|---------------------------------------------|
B|-------------------------------------------------|-----------------------10--------10---10/12--|
G|--7p6---7---7br---6---7p6---7p6-----------6---7--|--7/9---7---9---9/11--------11---------------|
D|----------------------------------7---7----------|---------------------------------------------|
A|-------------------------------------------------|---------------------------------------------|
E|-------------------------------------------------|---------------------------------------------|


     e    e     e    e    s    s    s   s    s    s     s    s
e|--------------------------------------------------------------|
B|--10---12b---12---10---12--------10---12---10--------10---12--|
G|----------------------------11------------------11------------|
D|--------------------------------------------------------------|
A|--------------------------------------------------------------|
E|--------------------------------------------------------------|


    .q    s    e     s    s    s   s     s   e      
e|-----------------------------------------------|
B|--10---10---12br--10---12--------10---12---10--|
G|----------------------------11-----------------|
D|-----------------------------------------------|
A|-----------------------------------------------|
E|-----------------------------------------------|

     s   sr   s  sr   e    e    s   s   s   s    s    s   e
e|-----------------------------------------------------------|
B|--13b-----12b-----10--------10-----------------------------|
G|-----------------------11--------11---9--------9-----------|
D|------------------------------------------11-------11---9--|
A|-----------------------------------------------------------|
E|-----------------------------------------------------------|


3rd Verse


     e    e  s s   s   .e   e   s s  s   ste   e    s s   s   .e   e   s s  e    
e|------------------------------------------|----------------------------------|
B|------------------------------------------|----------------------------------|
G|---------------------2-----------------2--|-----------------2----------------|
D|-------2---------x-------4---------2------|--4----------2-------4---------2--|
A|--12---0---3h4-----------------3h4--------|-------3h4---------------3h4------|
E|------------------------------------------|----------------------------------|


    e   s   s   s s   s   .e   e  s s  s    ste   e   s s  s    e   e   e   s s   e    
e|---------------------------------------------|-------------------------------------|
B|---------------------------------------------|-------------------------------------|
G|------------------------2-----------------2--|----------------2--------------------|
D|--------------------2-------4---------2------|--4---------2-------4---2---------2--|
A|--0---0---0---3h4---------------3h4----------|------3h4-------------------3h4------|
E|---------------------------------------------|-------------------------------------|


    e   s   s   s s   s   .e   e   s s  s   ste    e   s s  s   .e   e   s s   e
e|----------------------------------------------|---------------------------------|
B|------------------------3------------------3--|----------------3----------------|
G|--------------------2--------2---------2------|--2---------2-------2---------2--|
D|--0---0---0---3h4----------------3h4----------|------2h3---------------3h4------|
A|----------------------------------------------|---------------------------------|
E|----------------------------------------------|---------------------------------|


    e   s   s   s s   s   e   s   e   s   s s   s   sts   s   e   s s   s   e   s   e   e e  
e|-----------------------------------------------------|-------------------------------------|
B|-----------------------------------------------------|-------------------------------------|
G|------------------------2---2---------------------2--|--2-----------------2----------------|
D|--------------------2-----------4-------------2------|------4---------2--------------------|
A|--0---0---0---3h4-------------------0---3h4----------|----------3h4-----------0---0---3h4--|
E|-----------------------------------------------------|-------------------------------------|


    e   s   s   s s   s   .e   e   s s  s   ste    e   s s  s   .e   e   s s   e
e|----------------------------------------------|---------------------------------|
B|------------------------3------------------3--|----------------3----------------|
G|--------------------2--------2---------2------|--2---------2-------2---------2--|
D|--0---0---0---3h4----------------3h4----------|------3h4---------------3h4------|
A|----------------------------------------------|---------------------------------|
E|----------------------------------------------|---------------------------------|


    e   s   s   s s   s   e   s   e   s   s s   s   sts   s   e   s s   s   e   e   s   s s    e  
e|-----------------------------------------------------|-----------------------------------------|
B|-----------------------------------------------------|-----------------------------------------|
G|------------------------2---2---------------------2--|--2-----------------2--------------------|
D|--------------------2-----------4-------------2------|------4---------2-------4---2---------2--|
A|--0---0---0---3h4-------------------0---3h4----------|----------3h4-------------------3h4------|
E|-----------------------------------------------------|-----------------------------------------|


3rd Chorus/ Chorus Reprise


    e   s e   s   e   e   s e   s   e     e     e    hte       e   s e   s   e   e   s e   s   e 
e|-------------------------------------|--------------------|-------------------------------------|
B|------2h3---3---3-------2h3---3---3--|--------------------|------2h3---3---3-------2h3---3---3--|
G|------4-4---4---4-------3-3---4---4--|--7---7---7---9-----|------4-4---4---4-------3-3---4---4--|
D|--4---4-4---4---4---4---4-4---4---4--|--7---7---7---9-----|--4---4-4---4---4---4---4-4---4---4--|
A|--2-----------------2----------------|--5---5---5---7-----|--2-----------------2----------------|
E|-------------------------------------|--------------------|-------------------------------------|

    
   e     e     e     htet.h    e   s e   s   e   e   s e   s   e     e     e    hte 
e|--------------------------|-------------------------------------|--------------------|
B|--------------------------|------2h3---3---3-------2h3---3---3--|--------------------|
G|--7-----7-----7-----9-----|------4-4---4---4-------3-3---4---4--|--7---7---7---9-----|
D|--7-----7-----7-----9-----|--4---4-4---4---4---4---4-4---4---4--|--7---7---7---9-----|
A|--5-----5-----5-----7-----|--2-----------------2----------------|--5---5---5---7-----|
E|--------------------------|-------------------------------------|--------------------|


    e   s e   s   e   e   s e   s   e     e     e    hte       
e|-------------------------------------|--------------------|
B|------2h3---3---3-------2h3---3---3--|--------------------|
G|------4-4---4---4-------3-3---4---4--|--7---7---7---9-----|
D|--4---4-4---4---4---4---4-4---4---4--|--7---7---7---9-----|
A|--2-----------------2----------------|--5---5---5---7-----|
E|-------------------------------------|--------------------|


Outro


     e    e      s    s   s    e    e      s    s   s   .e   s   s s   s   .e  e   s s   s  et.e 
e|----------------------------------------------------|-----------------------------------------|
B|----------------------------------------------------|-----------------------------------------|
G|----------------------------------------------------|--------------------2---2----------------|
D|----------------------------------------------------|----------------2-----------------2------|
A|--2hb---2hb---2p0-----------2hb---2hb---2p0---------|--0---0---3h4---------------3h4-------0--|
E|--------------------2---0---------------------2--0--|-----------------------------------------|


     s   s s  s   qts e   e      .e  s   s s   s   q   s   s s   s   st.   s   s s   s   .e   e  e   e
e|----------------------------|-----------------------------------------|-----------------------------|
B|----------------------------|-----------------------------------------|-----------------------------|
G|----------------2-----------|--------------------2---x----------------|----------------2---x--------|
D|------------2---------------|----------------2---2---x---------2---2--|------------2-------x--------|
A|--0---3h4-----------3---3---|--0---x---3h4---------------3h4-------0--|--0---3h4---------------3---4|
E|----------------------------|-----------------------------------------|-----------------------------|


    e   e   s s   s   q   s   s s   s   st.e   s  s s  s    q   s   s s   e
e|-----------------------------------------|---------------------------------|
B|--------------------3---x----------------|----------------3---x------------|
G|--2---x---------2-------x---------2------|------------2-------x---------2--|
D|----------3h4---------------3h4-------0--|---x--3h4---------------3h4------|
A|-----------------------------------------|---------------------------------|
E|-----------------------------------------|---------------------------------|


    q   s s   s   q   sr   s s  s   stq   s s   s   q   sr  e   e   
e|-------------------------------------|----------------------------|
B|-------------------------------------|------------------------10--|
G|----------------2--------------------|------------2---------------|
D|------------2-----------------2------|--------2-------------------|
A|--0---3h4---------------3h4-------0--|--3h4---------------3-------|
E|-------------------------------------|----------------------------|
     

     s    .e   e    s    .e    s s     e      s    ste    e   s    .e    s    s   .e     e    sts
e|----------------------------------------------------|-------------------------------------------|
B|--10----10---10---10---10---12p10---12br---12---10--|--10---10---10---12---10---13b---12b---10--|
G|----------------------------------------------------|-------------------------------------------|
D|----------------------------------------------------|-------------------------------------------|
A|----------------------------------------------------|-------------------------------------------|
E|----------------------------------------------------|-------------------------------------------|


     s    e     e      s     e     e      s     e     e         e   .q    s     .e    s    s     e
e|----------------------------------------------------------|-------------12------------------------|
B|--10---13b---13qbr---10---13b---13qbr---10---13b---13qbr--|--10---12b--------12br---10--------10--|
G|----------------------------------------------------------|------------------------------11-------|
D|----------------------------------------------------------|---------------------------------------|
A|----------------------------------------------------------|---------------------------------------|
E|----------------------------------------------------------|---------------------------------------|


    e    .q    e  er  s s   s   stq   s s   s   e   e   sr  s s   e
e|---------------------------------|---------------------------------|
B|--10---12b---x-------------------|------------3---x----------------|
G|-------------x------------2------|--------2-------x-------------2--|
D|--------------------3h4-------0--|--3h4-------------------3h4------|
A|---------------------------------|---------------------------------|
E|---------------------------------|---------------------------------|


    e   s  sr  s s   s   .e  e   s s  s   ste    e   s s   s   .e   e   s s   e   
e|--------------------------------------------|----------------------------------|
B|--------------------------------------------|----------------------------------|
G|------2----------------2---x-------------2--|--x--------------2---x------------|
D|-------------------2-------x---------2------|--x----------2-------x---------2--|
A|--0----------3h4---------------3h4----------|------3h4----------------3h4------|
E|--------------------------------------------|----------------------------------|
     

     s s    s   .e    s   s   e     s    e     s      e 
e|--------------------------------------------------------|
B|--9h11---10---10---12p10---12br--10---12br---10---12br--|
G|--------------------------------------------------------|
D|--------------------------------------------------------|
A|--------------------------------------------------------|
E|--------------------------------------------------------|


    s     e      s    e     s     e     s    s  s   s   sr   s    ste
e|--------------------------------------------------------------------|
B|--10---12br---10---12br---10---12br---10----------10-------10---10--|
G|-------------------------------------------9h11---------------------|
D|--------------------------------------------------------------------|
A|--------------------------------------------------------------------|
E|--------------------------------------------------------------------|


    s   s   s   s s   s s   t t    e      e     s    ste
e|--------------------------------------------------------|
B|--7-------5---------------------------------------------|
G|------6-------6\4---4\2---2p0---------------------------|
D|--------------------------------------------------------|
A|--------------------------------3qbd---3qbd---0---3qbd--|
E|--------------------------------------------------------|


     e       s      e     s    e     s    .e    e     e  .e   s   e   e   s   e   s   e
e|-------------------------------------------------|------0---0---0---0---0---0---0---0--|
B|-------------------------------------------------|------0---0---0---0---0---0---0---0--|
G|-------------------------------------------------|------1---1---1---1---1---1---1---1--|
D|-------------------------------------------------|------2---2---2---2---2---2---2---2--|
A|--3qbd---3qbd---3qbd-------------------3qbd------|------2---2---2---2---2---2---2---2--|
E|------------------------5---3qbd---5----------5--|--0---0---0---0---0---0---0---0---0--|


    e   .e  s   e   e   .e  s   e        e   .qr    e  .qr   .er .e   .e  .e  qtw
e|---------------------------------|-----------------------|---------------------|
B|------3---3---3------------------|-----------------------|---------------------|
G|------4---4---4-------7---7---7--|-----6----------6------|------6---4---7---6--|
D|------4---4---4-------7---7---7--|-----7----------7------|------7---5---5---7--|
A|--2---2---2---2---5---5---5---5--|-----7----------7------|------7---5---7---7--|
E|---------------------------------|-----5----------5------|------5---3-------5--|



-------------------------------------------------------------------------------------------------------
-------------------------------------------------------------------------------------------------------


Guitar III (Clean)


Intro


     wtw                     wth       sr  s   e   e   e
e|----5----|-------------|----5----|------------------------|
B|----5----|-------------|----5----|------------------------|
G|----2----|-------------|----2----|------------------------|
D|----2----|-------------|----2----|------------------------|
A|----0----|-------------|----0----|-------0---0---2---4----|
E|---------|-------------|---------|------------------------|


1st Verse


    e   s   s   s  .e   s   s   s   e   s  e      e   s   s   s .e   s   s   s   e   s   e   
e|---------------------------------------------|--------------------------------------------|
B|------3---x---3---3---3---x---3---3---3---3--|------3---x---3--3---3---x---3---3---3---3--|
G|------2---x---2---2---2---x---2---2---2---2--|------2---x---2--2---2---x---2---2---2---2--|
D|--0---0--------------------------------------|--0---0-------------------------------------|
A|---------------------------------------------|--------------------------------------------|
E|---------------------------------------------|--------------------------------------------|


     e   s   s   s  .e   s   s   s  e   s   e     e   s   s   s  .e   s   s   s   s s   e   
e|---------------------------------------------|-------------------------------------------|
B|---------------------------------------------|-------------------------------------------|
G|--2---2---x---2---2---2---x---2---2---2---2--|--2---2---x---2---2---2---x---2------------|
D|--2---2---x---2---2---2---x---2---2---2---2--|--2---2---x---2---2---2---x---2---------2--|
A|--0---0-------0---0--------------------------|--0---0-------0---0---------------3h4------|
E|---------------------------------------------|-------------------------------------------|


    e   s   s   s  .e   s   s   s   .e  e     e   s   s   s  .e   s   s   s   .e  e 
e|----------------------------------3------|----------------------------------3------|
B|------3---x---3---3---3---x---3---3---3--|------3---x---3---3---3---x---3---3---3--|
G|------2---x---2---2---2---x---2---2---2--|------2---x---2---2---2---x---2---2---2--|
D|--0---0----------------------------------|--0---0----------------------------------|
A|-----------------------------------------|-----------------------------------------|
E|-----------------------------------------|-----------------------------------------|


     e   s   s   s  .e   s   s   s  e   s   e     e   s   s   s  .e   s   s   s   s s   e   
e|---------------------------------------------|-------------------------------------------|
B|---------------------------------------------|-------------------------------------------|
G|--2---2---x---2---2---2---x---2---2---2---2--|--2---2---x---2---2---2---x---2------------|
D|--2---2---x---2---2---2---x---2---2---2---2--|--2---2---x---2---2---2---x---2---------2--|
A|--0---0-------0---0--------------------------|--0---0-------0---0---------------3h4------|
E|---------------------------------------------|-------------------------------------------|


1st Chorus


    e   s   e   s   e   e   s   e   s   e     e   e   e   hte       
e|------2---2---2---2-------2---2---2---2--|--2---2---2---0--|
B|------3---3---3---3-------3---3---3---3--|--3---3---3---0--|
G|------4---4---4---4-------4---4---4---4--|--2---2---2---1--|
D|--4---4---4---4---4---4---4---4---4---4--|--0---0---0---2--|
A|--2-------------------2------------------|--------------2--|
E|-----------------------------------------|--------------0--|


    e   s   e   s   e   e   s   e   s   e     e   e   e   hte       
e|------2---2---2---2-------2---2---2---2--|--2---2---2---0--|
B|------3---3---3---3-------3---3---3---3--|--3---3---3---0--|
G|------4---4---4---4-------4---4---4---4--|--2---2---2---1--|
D|--4---4---4---4---4---4---4---4---4---4--|--0---0---0---2--|
A|--2-------------------2------------------|--------------2--|
E|-----------------------------------------|--------------0--|


1st Solo  
 

    er  s  er  s  er  s  er  qts     er   s  er  s  er  s  er  qts
e|---------------------------------|---------------------------------|
B|---------------------------------|---------------------------------|
G|------6------4------3-------1----|------6------4------3-------1----|
D|------7------5------4-------2----|------7------5------4-------2----|
A|------7------5------4-------2----|------7------5------4-------2----|
E|------5------3------2-------0----|------5------3------2-------0----|


2nd Verse


     e   s   s   s  .e   s   s   s  e   s   e     e   s   s   s  .e   s   s   s   s s   e   
e|---------------------------------------------|-------------------------------------------|
B|---------------------------------------------|-------------------------------------------|
G|--2---2---x---2---2---2---x---2---2---2---2--|--2---2---x---2---2---2---x---2------------|
D|--2---2---x---2---2---2---x---2---2---2---2--|--2---2---x---2---2---2---x---2---------2--|
A|--0---0-------0---0--------------------------|--0---0-------0---0---------------3h4------|
E|---------------------------------------------|-------------------------------------------|


     e   s   s   s  .e   s   s   s  e   s   e     e   s   s   s  .e   s   s   s   s s   e   
e|---------------------------------------------|-------------------------------------------|
B|---------------------------------------------|-------------------------------------------|
G|--2---2---x---2---2---2---x---2---2---2---2--|--2---2---x---2---2---2---x---2------------|
D|--2---2---x---2---2---2---x---2---2---2---2--|--2---2---x---2---2---2---x---2---------2--|
A|--0---0-------0---0--------------------------|--0---0-------0---0---------------3h4------|
E|---------------------------------------------|-------------------------------------------|


    e   s   s   s  .e   s   s   s   .e  e     e   s   s   s  .e   s   s   s   .e  e 
e|----------------------------------3------|----------------------------------3------|
B|------3---x---3---3---3---x---3---3---3--|------3---x---3---3---3---x---3---3---3--|
G|------2---x---2---2---2---x---2---2---2--|------2---x---2---2---2---x---2---2---2--|
D|--0---0----------------------------------|--0---0----------------------------------|
A|-----------------------------------------|-----------------------------------------|
E|-----------------------------------------|-----------------------------------------|


    e   s   s   s  .e   s   s   s   e   s   e     e   s   s   s  .e   s s   s   s s   s   s s   
e|---------------------------------------------|-----------------------------------------------|
B|---------------------------------------------|-----------------------------------------------|
G|--2---2---x---2---2---2---x---2---2---2---2--|--2---2---x---2---2---------2---------2--------|
D|--2---2---x---2---2---2---x---2---2---2---2--|--2---2---x---2---2----------------------------|
A|--0---0-------0---0--------------------------|--0---0-------0---0---3h4-------3h4-------3h4--|
E|---------------------------------------------|-----------------------------------------------|


    e   s   s   s  .e   q   q     e   s   s   s  .e   q   q     e   e   s s   e   e   e   s s   e
e|----------------------2---2--|----------------------2---2--|-------------------------------------|
B|------3---x---3---3---3---3--|------3---x---3---3---3---3--|-------------------------------------|
G|------2---x---2---2---2---2--|------2---x---2---2---2---2--|------2-------------2---2------------|
D|--0---0---------------0---0--|--0---0---------------0---0--|------2---------2---2---2---------2--|
A|-----------------------------|-----------------------------|--0---0---3h4-------0---0---3h4------|
E|-----------------------------|-----------------------------|-------------------------------------|


    e   e   s s   e   e   e   s s   e 
e|-------------------------------------|
B|-------------------------------------|
G|------2-------------2---2------------|
D|------2---------2---2---2---------2--|
A|--0---0---3h4-------0---0---3h4------|
E|-------------------------------------|


2nd Chorus


    e   s   e   s   e   e   s   e   s   e     e   e   e   hte       
e|------2---2---2---2-------2---2---2---2--|--2---2---2---0--|
B|------3---3---3---3-------3---3---3---3--|--3---3---3---0--|
G|------4---4---4---4-------4---4---4---4--|--2---2---2---1--|
D|--4---4---4---4---4---4---4---4---4---4--|--0---0---0---2--|
A|--2-------------------2------------------|--------------2--|
E|-----------------------------------------|--------------0--|


    e   s   e   s   e   e   s   e   s   e     e   e   e   htet.h       
e|------2---2---2---2-------2---2---2---2--|--2---2---2---0--|
B|------3---3---3---3-------3---3---3---3--|--3---3---3---0--|
G|------4---4---4---4-------4---4---4---4--|--2---2---2---1--|
D|--4---4---4---4---4---4---4---4---4---4--|--0---0---0---2--|
A|--2-------------------2------------------|--------------2--|
E|-----------------------------------------|--------------0--|


2nd Solo- drop tempo from 128 bpm to 86 bpm 

   
      qr       q   q   e   e   q      q   q   e   e   q        e   e   q   e   e   q
e|-----------|----------------------|------------------------|--------------------------|
B|-----------|----------------------|------5-----------2-----|----------------------2---|
G|-----------|------2-----------2---|------4-----------3-----|----------2-----------3---|
D|-----------|------2-----------2---|------2-----------0-----|----------2-----------0---|
A|-----------|--0---0---0---0---0---|--0-------0---0---------|--0---0---0---0---0-------|
E|-----------|----------------------|------------------------|--------------------------|

                             Progress evenly back to 123 bpm 
    e   e   q   e   e   q      e   e   e   e   e   e   e   e     e   e   e   e   e   e   e   e
e|--------------------------|---------------------------------|---------------------------------|
B|----------5-----------2---|--------------------------3---3--|--------------------------3---3--|
G|----------4-----------3---|------2-------2-------2---2---2--|------2-------2-------2---2---2--|
D|----------2-----------0---|--2---2---2---2---2---2---2---2--|--2---2---2---2---2---2---2---2--|
A|--0---0-------0---0-------|--0---0---0---0---0---0----------|--0---0---0---0---0---0----------|
E|--------------------------|---------------------------------|---------------------------------|


    e   e   s   s   e   s   s   e   e   e     e   e   s   s   e   s   s   e   e   e
e|-----------------------------------------|-----------------------------------------|
B|----------------------------------5---5--|----------------------------------5---5--|
G|------2-----------2-----------2---4---4--|------2-----------2-----------2---4---4--|
D|--2---2---2---2---2---2---2---2---2---2--|--2---2---2---2---2---2---2---2---2---2--|
A|--0---0---0---0---0---0---0---0----------|--0---0---0---0---0---0---0---0----------|
E|-----------------------------------------|-----------------------------------------|


    er   s  er  s  er s  er  qts     er   s  er  s  er s  er  .e   s s
e|--------------------------------|-------------------------------------|
B|-------3------2-----------------|-------3------2----------------------|
G|-------2------2-----4-------2---|-------2------2-----4-------2--------|
D|-------0------------4-------2---|--------------------4-------2--------|
A|----------------------------0---|----------------------------0--------|
E|--------------------------------|--------------------------------0h3--|


3rd Verse


    e   e   s s   s   e  .e   s s   s   sts   .e  s s   s   s   s  sr   e   s s   s   ste
e|-----------------------------------------|---------------------------------------------|
B|-----------------------------------------|---------------------------------------------|
G|--2---2-------------2---2---------2---2--|--2---------2---2-------------------------2--|
D|--2---2---------2---2---2---------2---2--|--2---------2---2---4-------2---------2------|
A|--0---0---3h4-------0---0---3h4---0---0--|--0---3h4---0---0---------------3h4----------|
E|-----------------------------------------|---------------------------------------------|


    e   s s   s   e  .e   s s   s   sts   .e  s s   s   s   e   e   e   e
e|-------------------------------------|-----------------------------------|
B|-------------------------------------|-----------------------------------|
G|--2-------------2---2-------------2--|--2---------2---2---2--------------|
D|--2---------2---2---2---------2---2--|--2---------2---2---2---2---5---6--|
A|--0---3h4-------0---0---3h4-------0--|--0---3h4---0---0---0---0---3---4--|
E|-------------------------------------|-----------------------------------|


    e   e  sr  e  sr  e  sr  .e  e     e   e  sr  e  sr  e  sr  .e  e    
e|----------------------------------|----------------------------------|
B|---------------------------8---7--|---------------------------8---7--|
G|--7---7------7------7------7---7--|--7---7------7------7------7---7--|
D|--7---7------7------7------7---7--|--7---7------7------7------7---7--|
A|--5---5------5------5------5---5--|--5---5------5------5------5---5--|
E|----------------------------------|----------------------------------|


    e    s  sr   s s   s  .e   s   sr  s s   s  ste     e   s  e   s   e    e   s   s e
e|--------------------------------------------------|------------------------------------|
B|--------------------------------------------------|------------------------------------|
G|--2----------------------2---------------------2--|--2-------2---2---2-----------------|
D|------4--------------2-------4-------------2------|----------2---2--------4---2--------|
A|---------------3h4-------------------3h4----------|------4------------------------3h4--|
E|--------------------------------------------------|------------------------------------|


    e   e  sr  e  sr  e  sr  .e  e     e   e  sr  e  sr  e  sr  .e  e    
e|----------------------------------|----------------------------------|
B|---------------------------8---7--|---------------------------8---7--|
G|--7---7------7------7------7---7--|--7---7------7------7------7---7--|
D|--7---7------7------7------7---7--|--7---7------7------7------7---7--|
A|--5---5------5------5------5---5--|--5---5------5------5------5---5--|
E|----------------------------------|----------------------------------|


    e    e  s s   s   e   e   e   s s  ste    q   e   e    e  s   s e
e|-----------------------------------------|---------------------------|
B|-----------------------------------------|---------------------------|
G|--2-----------------2-----------------2--|--2-------2----------------|
D|------4---------2-------4---2------------|--2---2-------4---2--------|
A|----------3h4-------------------3h4------|--0-------------------3h4--|
E|-----------------------------------------|---------------------------|


3rd Chorus/ Chorus reprise


    e   s   e   s   e   e   s   e   s   e     e   e   e   hte       
e|------2---2---2---2-------2---2---2---2--|--2---2---2---0--|
B|------3---3---3---3-------3---3---3---3--|--3---3---3---0--|
G|------4---4---4---4-------4---4---4---4--|--2---2---2---1--|
D|--4---4---4---4---4---4---4---4---4---4--|--0---0---0---2--|
A|--2-------------------2------------------|--------------2--|
E|-----------------------------------------|--------------0--|


    e   s   e   s   e   e   s   e   s   e     e   e   e   hte       
e|------2---2---2---2-------2---2---2---2--|--2---2---2---0--|
B|------3---3---3---3-------3---3---3---3--|--3---3---3---0--|
G|------4---4---4---4-------4---4---4---4--|--2---2---2---1--|
D|--4---4---4---4---4---4---4---4---4---4--|--0---0---0---2--|
A|--2-------------------2------------------|--------------2--|
E|-----------------------------------------|--------------0--|


    e   s   e   s   e   e   s   e   s   e     e   e   e   hte       
e|------2---2---2---2-------2---2---2---2--|--2---2---2---0--|
B|------3---3---3---3-------3---3---3---3--|--3---3---3---0--|
G|------4---4---4---4-------4---4---4---4--|--2---2---2---1--|
D|--4---4---4---4---4---4---4---4---4---4--|--0---0---0---2--|
A|--2-------------------2------------------|--------------2--|
E|-----------------------------------------|--------------0--|


    e   s   e   s   e   e   s   e   s   e     e   e   e   hte      
e|------2---2---2---2-------2---2---2---2--|--2---2---2---0--|
B|------3---3---3---3-------3---3---3---3--|--3---3---3---0--|
G|------4---4---4---4-------4---4---4---4--|--2---2---2---1--|
D|--4---4---4---4---4---4---4---4---4---4--|--0---0---0---2--|
A|--2-------------------2------------------|--------------2--|
E|-----------------------------------------|--------------0--|


Outro


     e    e      s    s   s    e    e      s    s   s    e   e   s   s   e   e   e   s   s   s   
e|----------------------------------------------------|-----------------------------------------|
B|----------------------------------------------------|-----------------------------------------|
G|----------------------------------------------------|------2---2---2---2-------2---2---2---2--|
D|----------------------------------------------------|------2---2---2---2-------2---2---2---2--|
A|--2hb---2hb---2p0-----------2hb---2hb---2p0---------|--0---0---0---0---0---0---0---0---0---0--|
E|--------------------2---0---------------------2--0--|-----------------------------------------|


    e   e   s   s   e   e   e   s   s   s     e   e   s   s   e   e   e   s   s   s  
e|-----------------------------------------|-----------------------------------------|
B|-----------------------------------------|-----------------------------------------|
G|------2---2---2---2-------2---2---2---2--|------2---2---2---2-------2---2---2---2--|
D|------2---2---2---2-------2---2---2---2--|------2---2---2---2-------2---2---2---2--|
A|--0---0---0---0---0---0---0---0---0---0--|--0---0---0---0---0---0---0---0---0---0--|
E|-----------------------------------------|-----------------------------------------|

    e   e   s   s   e   e   e   s   s   s     e   e   s   s   e   e   e   s   s   s  
e|-----------------------------------------|------2---2---2---2-------2---2---2---2--|
B|-----------------------------------------|------3---3---3---3-------3---3---3---3--|
G|------2---2---2---2-------2---2---2---2--|------2---2---2---2-------2---2---2---2--|
D|------2---2---2---2-------2---2---2---2--|--0---0---0---0---0---0---0---0---0---0--|
A|--0---0---0---0---0---0---0---0---0---0--|-----------------------------------------|
E|-----------------------------------------|-----------------------------------------|


    e   e   s   s   e   e   e   s   s   s     e   e   s   s   e   e   e   s   s   s  
e|------2---2---2---2-------2---2---2---2--|-----------------------------------------|
B|------3---3---3---3-------3---3---3---3--|-----------------------------------------|
G|------2---2---2---2-------2---2---2---2--|------2---2---2---2-------2---2---2---2--|
D|--0---0---0---0---0---0---0---0---0---0--|------2---2---2---2-------2---2---2---2--|
A|-----------------------------------------|--0---0---0---0---0---0---0---0---0---0--|
E|-----------------------------------------|-----------------------------------------|


    e   e   s   s   e   e   e   s   s   s     e   e   s   s   e   e   e   s   s   s  
e|-----------------------------------------|------2---2---2---2-------2---2---2---2--|
B|-----------------------------------------|------3---3---3---3-------3---3---3---3--|
G|------2---2---2---2-------2---2---2---2--|------2---2---2---2-------2---2---2---2--|
D|------2---2---2---2-------2---2---2---2--|--0---0---0---0---0---0---0---0---0---0--|
A|--0---0---0---0---0---0---0---0---0---0--|-----------------------------------------|
E|-----------------------------------------|-----------------------------------------|


    e   e   s   s   e   e   e   s   s   s     e   e   s   s   e   e   e   s   s   s  
e|------2---2---2---2-------2---2---2---2--|-----------------------------------------|
B|------3---3---3---3-------3---3---3---3--|-----------------------------------------|
G|------2---2---2---2-------2---2---2---2--|------2---2---2---2-------2---2---2---2--|
D|--0---0---0---0---0---0---0---0---0---0--|------2---2---2---2-------2---2---2---2--|
A|-----------------------------------------|--0---0---0---0---0---0---0---0---0---0--|
E|-----------------------------------------|-----------------------------------------|


    e   e   s   s   e   e   e   s   s   s     e   e   s   s   e   e   e   s   s   s  
e|-----------------------------------------|------2---2---2---2-------2---2---2---2--|
B|-----------------------------------------|------3---3---3---3-------3---3---3---3--|
G|------2---2---2---2-------2---2---2---2--|------2---2---2---2-------2---2---2---2--|
D|------2---2---2---2-------2---2---2---2--|--0---0---0---0---0---0---0---0---0---0--|
A|--0---0---0---0---0---0---0---0---0---0--|-----------------------------------------|
E|-----------------------------------------|-----------------------------------------|


    e   e   s   s   e   e   e   s   s   s     e   e   s   s   e   e   e   s   s   s  
e|------2---2---2---2-------2---2---2---2--|-----------------------------------------|
B|------3---3---3---3-------3---3---3---3--|-----------------------------------------|
G|------2---2---2---2-------2---2---2---2--|------2---2---2---2-------2---2---2---2--|
D|--0---0---0---0---0---0---0---0---0---0--|------2---2---2---2-------2---2---2---2--|
A|-----------------------------------------|--0---0---0---0---0---0---0---0---0---0--|
E|-----------------------------------------|-----------------------------------------|


    e   e   s   s   e   e   e   s   s   s     e   e   s   s   e   e   e   s   s   s  
e|-----------------------------------------|------2---2---2---2-------2---2---2---2--|
B|-----------------------------------------|------3---3---3---3-------3---3---3---3--|
G|------2---2---2---2-------2---2---2---2--|------2---2---2---2-------2---2---2---2--|
D|------2---2---2---2-------2---2---2---2--|--0---0---0---0---0---0---0---0---0---0--|
A|--0---0---0---0---0---0---0---0---0---0--|-----------------------------------------|
E|-----------------------------------------|-----------------------------------------|


    e   e   s   s   e   e   e   s   s   s     e   e   s   s   e   e   e   s   s   s  
e|------2---2---2---2-------2---2---2---2--|-----------------------------------------|
B|------3---3---3---3-------3---3---3---3--|-----------------------------------------|
G|------2---2---2---2-------2---2---2---2--|------2---2---2---2-------2---2---2---2--|
D|--0---0---0---0---0---0---0---0---0---0--|------2---2---2---2-------2---2---2---2--|
A|-----------------------------------------|--0---0---0---0---0---0---0---0---0---0--|
E|-----------------------------------------|-----------------------------------------|


    e   e   s   s   e   e   e   s   s   s     e  .e   s   e   e   s   e   s   e     
e|-----------------------------------------|------0---0---0---0---0---0---0---0--|
B|-----------------------------------------|------0---0---0---0---0---0---0---0--|
G|------2---2---2---2-------2---2---2---2--|------1---1---1---1---1---1---1---1--|
D|------2---2---2---2-------2---2---2---2--|------2---2---2---2---2---2---2---2--|
A|--0---0---0---0---0---0---0---0---0---0--|------2---2---2---2---2---2---2---2--|
E|-----------------------------------------|--0---0---0---0---0---0---0---0---0--|


    e   .e  s   e   e   .e  s   e        e   .qr    e  .qr   .er .e   .e  .e  qtw
e|---------------------------------|-----------------------|--------------2------|
B|------3---3---3-------3---3---3--|-----------------------|--------------3------|
G|------4---4---4-------2---2---2--|-----2----------2------|------2---0---2---2--|
D|------4---4---4---0---0---0---0--|-----2----------2------|------2---0---0---2--|
A|--2---2---2---2------------------|-----0----------0------|------0---2-------0--|
E|---------------------------------|-----------------------|----------3----------|


************************************

| /   slide up
| \   slide down
| h   hammer-on
| p   pull-off
| ~   vibrato
| +   harmonic
| x   Mute note
| b   Bend
| pb  Pre-bend
| br  Bend release
| pbr Pre-bend release
| brb Bend release bend

************************************
Добавлено: 11.06.2016
Другие материалы по этой песне:

Страница создана 13.11.2013
http://primanota.ru/outlaws/south-carolina-chords.htm
Привет, Гость.
Предлагаем пройти революционный курс по гитаре.
Подарок от PrimaNota.Ru, забирай!