PrimaNota.ru - самый крупный в мире бесплатный архив песенных текстов, аккордов, табулатур и нот


Outlaws - It Follows From Your Heart - таба, видео

Регистрация Запомнить меня
Войти через:  Facebook Google Twitter Vk Yandex Mail.ru

Outlaws - It Follows From Your Heart - таба, видео

Печатать
Просмотров: 36
-------------------------------------------------------------------------------------------------------
                             It Follows From Your Heart- The Outlaws
                                          Outlaws-1975
                                 Words and Music by Billy Jones
-------------------------------------------------------------------------------------------------------
Tabbed by: Duane Baldwin
E-mail: duaneandjulie@gmail.com

Guitar I-Intro solo and 1st solo

Guitar II-All other solos

Tuning: Standard

Guitar I (clean)

Intro

      wr            wr           wr      .hr  er   s   s    .q   s   s   t t   s   e   s   s   s   s
e|------------|------------|------------|-----------------|-------------------------------------------|
B|------------|------------|------------|-----------------|--------------------------------1---3---1--|
G|------------|------------|------------|-----------------|--------------------------------0---0---0--|
D|------------|------------|------------|-----------------|------0-------------5---5---7--------------|
A|------------|------------|------------|--------------0--|--3-------3---5/7--------------------------|
E|------------|------------|------------|----------3------|-------------------------------------------|


    s s   e   t t s   hte   st.q   sr  t   t e  .e   t   t s     s .e  s.e   s   s .q
e|-----------------------|------------------------------------|--------------0---0-0--|
B|--3/5---3---1h3p1------|--1----------1---------1---1--------|--------1-----1---3/5--|
G|--0-----0---0-------2--|--0----------0---2p0-------0---2p0--|--------0h2---0---0-0--|
D|-----------------------|--0h2-------------------------------|--0h2------------------|
A|-----------------------|--3---------------------------------|--3--------------------|
E|-----------------------|------------------------------------|-----------------------|


1st Verse

    e   e   q   e   e   q      e   s  .er  .e   s   s   s  t t   s   s   s       q   q   e   e   q
e|--0-------0-----------3---|------1--------1--------------------------------|-------0-----------3--|
B|--1-------1-----------3---|------1--------1--------------------------------|-------1-----------3--|
G|--0-------0-----------0---|------2--------2--------------------------------|-------0-----------0--|
D|--2-------2-----------0---|------3--------3--------------------------------|-------2-----------0--|
A|--3---3---3---------------|------3--------3---------------------3---3------|---3---3--------------|
E|--------------3---3-------|--1----------------1---1---1---3/5-----------5--|-----------3---3------|


    e   s  .er  .e   s   s   s  t t   s   s   s      q   q   e   e   e   s   s
e|------1--------1--------------------------------|------0-----------3----------|------------------1--|
B|------1--------1--------------------------------|------1-----------3----------|------------------1--|
G|------2--------2--------------------------------|------0-----------0----------|--3---------------2--|
D|------3--------3--------------------------------|------2-----------0----------|--3---------------3--|
A|------3--------3---------------------3---3------|--3---3-------------------0--|--1---1---0-------3--|
E|--1----------------1---1---1---3/5-----------5--|----------3---3-------3------|--------------3---1--|


    e   e   q   e   e   q     q       .h
e|--0-------0-----------3--|-----------1--|
B|--1-------1-----------3--|--3--------1--|
G|--0-------1-----------0--|--3--------2--|
D|--2-------2-----------0--|--3--------3--|
A|--3---3---3--------------|--1--------3--|
E|--------------3---3------|-----------1--|


1st solo

    t t   s   e   e   e   t t   s   s   t t s   e      t .e     .q   qr
e|-------------------------------------------------|---------------------|
B|-------------------------------------------------|--10h11-----10-------|
G|--------5---5---5---5---------7---7---7h9p7---7--|--10--------10-------|
D|--------5---5---5---5---7/9---9---9-----------9--|---------------------|
A|--4h7--------------------------------------------|---------------------|
E|-------------------------------------------------|---------------------|


2nd Verse
                                       3
    q   q   q   q     e   q   e   [e   e  e]   q    q   q   q   q
e|--0---0---3---3--|--1---1---1---0--------------|--0---0---3---3--|
B|--1---1---3---3--|--1---1---1-------1----------|--1---1---3---3--|
G|--0---0---0---0--|--2---2---2-----------2------|--0---0---0---0--|
D|--2---2---0---0--|--3---3---3---------------3--|--2---2---0---0--|
A|--3---3---2---2--|--3---3---3------------------|--3---3---2---2--|
E|----------3---3--|--1---1---1------------------|----------3---3--|

           3        3       3
    e  [s  s  s][s  s  s][s s s] s .qt.s   e   e   q   e   e   .e   s     e  e   s  s   e   q   q
e|--1--------------------------------5--|----------0-----------3------|---------------------1---1--|
B|--1---------------1-------------6-----|----------1-----------3------|---------------------1---1--|
G|--2------------2-----2/5-----5--------|----------0-----------0------|--3---3--------------2---2--|
D|--3---------3-------------7-----------|----------2-----------0------|--3---3--------------3---3--|
A|--3------3----------------------------|--3---3---3-----------2---0--|--1---1---1---0----------3--|
E|--1---1-------------------------------|--------------3---3---3------|-----------------3----------|

 
    e   e   q   e   e   .e   s    q   s   s   s   s   s   s   s   s   s   s   s   s
e|----------0-----------3------|-----------------------------------------------------|
B|----------1-----------3------|-----------------------------------------------------|
G|----------0-----------0------|--3---3---3---3---3---3---3---3---3------------------|
D|----------2-----------0------|--3---3---3---3---3---3---3---3---3------------------|
A|--3---3---3-----------2---0--|--1---1---1---1---1---1---1---1---1---1---0----------|
E|--------------3---3---3------|----------------------------------------------3---1--|


1st Chorus


    e   e   e   e   e   e   e   e    .q  .q   s s   s s     q   e   e   q   q 
e|--1---1---0---0---1-------3------|--0---0--------------|--0---0-------0---0--|
B|--1---1---1---1---3---3---3---3--|--1---1---1----------|--1-------1---0---1--|
G|--2---2---2---2---2---2---0---0--|--0---0---2p0--------|--2-----------1---0--|
D|--3---3---2---2---0-------0---0--|--2---2---0-----0----|--2-----------2---2--|
A|--3-------0---------------2------|--3---3---------2p0--|--0-----------2---3--|
E|--1-----------------------3------|---------------------|---------------------|


    s s   e   t .s  e   s  s  e  er     q  q  q  q     q  q  q  q     q  q   q  q    hts  s s   q  sr
e|-----------------------------------|--0--0--------|--0-----------|--0--0---------|------------7----|
B|-----------------------------------|--1-----1-----|--3--3--------|--1------1-----|--3--------------|
G|--------7---7-----7---------7------|--2--------2--|--4-----4-----|--2---------2--|--4---5h7--------|
D|--------7---7h9---7---7-----7------|--3-----------|--5--------5--|--3------------|--5--------------|
A|--7/9-----------------7h9----------|--0-----------|--0-----------|--0------------|--0--------------|
E|-----------------------------------|--------------|--------------|---------------|-----------------|


3rd Verse


    e   q   q   q      e   s  .er  .e   s   s   s   t t   s   s   s      q   q   e   e   q
e|--0---0---3---3---|------1--------1--------------------------------|-------0-----------3--|
B|--1---1---3---3---|------1--------1--------------------------------|-------1-----------3--|
G|--0---0---0---0---|------2--------2--------------------------------|-------0-----------0--|
D|--2---2---0---0---|------3--------3--------------------------------|-------2-----------0--|
A|--3---3---2---2---|------3--------3---------------------3---3------|---3---3--------------|
E|----------3---3---|--1----------------1---1---1---3/5-----------5--|-----------3---3------|


    e   s  .er  .e   s   s   s  t t   s   s   s      e   e   q  e   e  .e   s
e|------1--------1--------------------------------|----------0----------3------|
B|------1--------1--------------------------------|----------1----------0------|
G|------2--------2--------------------------------|----------0----------0------|
D|------3--------3--------------------------------|----------2----------0------|
A|------3--------3---------------------3---3------|--3---3---3----------2---0--|
E|--1----------------1---1---1---3/5-----------5--|-------------3---3---3------|


    e   e   s   s   e   q   q    e    e  q   e   e   .e   s        w
e|----------------------1---1--|---------0------------3------|---------=--|
B|----------------------1---1--|---------1------------0------|------------|
G|--3---3---------------2---2--|---------0------------0------|-----3------|
D|--3---3---------------3---3--|---------2------------0------|-----3------|
A|--1---1---1---0-------3---3--|-3---3---3------------2---0--|-----1------|
E|------------------3---1---1--|--------------3---3---3------|------------|


2nd Solo

    e   e   q   e   e   q     e   e  er   .q   q    e   e   q   e   e   q     e   e  er  .q   q 
e|--0---0---0---3---3---3--|--1---1-------1------|--0---0---0---3---3---3--|--1---1-------1------|
B|--1---1---1---3---3---3--|--1---1-------1---3--|--1---1---1---3---3---3--|--1---1-------1---3--|
G|--0---0---0---0---0---0--|--2---2-------2---3--|--0---0---0---0---0---0--|--2---2-------2---3--|
D|--2---2---2---0---0---0--|--3---3-------3---3--|--2---2---2---0---0---0--|--3---3-------3---3--|
A|--3---3---3---2---2---2--|--3---3-------3---1--|--3---3---3---2---2---2--|--3---3-------3---1--|
E|--------------3---3---3--|--1---1-------1------|--------------3---3---3--|--1---1-------1------|


    q   q   e   e  .e   s     e   e   s   s   e   q   q    e    e  q   e   e   .e   s        
e|------0-----------3------|----------------------1---1--|---------0------------3------|
B|------1-----------3------|----------------------1---1--|---------1------------0------|
G|------0-----------0------|--3---3---------------2---2--|---------0------------0------|
D|--2---2-----------0------|--3---3---------------3---3--|---------2------------0------|
A|--3---3-----------2---0--|--1---1---1---0-------3---3--|-3---3---3------------2---0--|
E|----------3---3---3------|------------------3---1---1--|--------------3---3---3------|

    
    q   s   s   s   s   s   s   s   s   s   s   s   s
e|-----------------------------------------------------|
B|-----------------------------------------------------|
G|--3---3---3---3---3---3---3---3---3------------------|
D|--3---3---3---3---3---3---3---3---3---1---0----------|
A|--1---1---1---1---1---1---1---1---1-----------3---1--|
E|-----------------------------------------------------|


2nd Chorus


    e   e   e   e   e   e   e   e    .q  .q   s s   s s     q   e   e   q   q 
e|--1---1---0---0---1-------3------|--0---0--------------|--0---0-------0---0--|
B|--1---1---1---1---3---3---3---3--|--1---1---1----------|--1-------1---0---1--|
G|--2---2---2---2---2---2---0---0--|--0---0---2p0--------|--2-----------1---0--|
D|--3---3---2---2---0-------0---0--|--2---2---0-----0----|--2-----------2---2--|
A|--3-------0---------------2------|--3---3---------2p0--|--0-----------2---3--|
E|--1-----------------------3------|---------------------|---------------------|


    s s   e   t .s  e   s  s  e  er     e   e   e   e   e   e   e   e    .q  .q   s s   s s   
e|-----------------------------------|--1---1---0---0---1-------3------|--0---0--------------|
B|-----------------------------------|--1---1---1---1---3---3---3---3--|--1---1---1----------|
G|--------7---7-----7---------7------|--2---2---2---2---2---2---0---0--|--0---0---2p0--------|
D|--------7---7h9---7---7-----7------|--3---3---2---2---0-------0---0--|--2---2---0-----0----|
A|--7/9-----------------7h9----------|--3-------0---------------2------|--3---3---------2p0--|
E|-----------------------------------|--1-----------------------3------|---------------------|


       w                w
e|-----1---------|------3-------|
B|-----1---------|------3-------|
G|-----2---------|------0-------|
D|-----3---------|------0-------|
A|-----3---------|------2-------|
E|-----1---------|------3-------|


4th Verse

                                       
    e   e   q   e   e   q     e   s  .er  .q  s   .e    e   e  q    e   e   q
e|----------0-----------3--|--1---1-------1----------|----------0-----------3--|
B|----------1-----------3--|--1---1-------1----------|----------1-----------3--|
G|----------0-----------0--|--2---2-------2----------|----------0-----------0--|
D|----------2-----------0--|--3---3-------3----------|----------2-----------0--|
A|--3---3---3-----------2--|--3---3-------3---0---3--|--3---3---3-----------2--|
E|--------------3---3---3--|--1---1-------1----------|--------------3---3---3--|

   
                         3
    e   s  .er  e  [e    e   e] q     e   e   q   e  e    .e  s     e   e   s   s   e  q   q
e|--1---1-------1---0--------------|----------0-----------3------|---------------------1---1--|
B|--1---1-------1-------1----------|----------1-----------3------|---------------------1---1--|
G|--2---2-------2-----------2------|----------1-----------0------|--3---3--------------2---2--|
D|--3---3-------3---------------3--|----------2-----------0------|--3---3--------------3---3--|
A|--3---3-------3------------------|--3---3---3-----------2---0--|--1---1---1---0----------3--|
E|--1---1-------1------------------|--------------3---3---3------|-----------------3----------|


    e   e   q   e   e   .e   s        w  
e|----------0-----------3------|-------------|
B|----------1-----------3------|-------------|
G|----------1-----------0------|------3------|
D|----------2-----------0------|------3------|
A|--3---3---3-----------2---0--|------1------|
E|--------------3---3---3------|-------------|

Outro


      wr            wr           wr       .qr  q   s   s   s   s   s   s     q   q   e   e   q
e|------------|------------|------------|------1--------------------------|------0-----------3---|
B|------------|------------|------------|------1--------------------------|------1-----------3---|
G|------------|------------|------------|------2---2---2---2---2---2---2--|--0---0-----------0---|
D|------------|------------|------------|------3---3---3---3---3---3---3--|------2-----------0---|
A|------------|------------|------------|------3---3---3---3---3---3---3--|------3-----------2---|
E|------------|------------|------------|------1---1---1---1---1---1---1--|----------3---3---3---|


    e   e   e  .q   q     e   e   q   e   e   q     e   e   e  .q   q     e   e   q   e   e   q
e|--1---1-------1---1--|----------0-----------3--|--1---1-------1---1--|----------0-----------3--|
B|--1---1-------1---1--|----------1-----------3--|--1---1-------1---1--|----------1-----------3--|
G|--2---2---x---2---2--|----------0-----------0--|--2---2---x---2---2--|----------0-----------0--|
D|--3---3---x---3---3--|----------2-----------0--|--3---3---x---3---3--|----------2-----------0--|
A|--3---3---x---3---3--|--3---3---3-----------2--|--3---3---x---3---3--|--3---3---3-----------2--|
E|--1---1-------1---1--|--------------3---3---3--|--1---1-------1---1--|--------------3---3---3--|


    e   e   e  .q   q     e   e   q   e   e   q     s  s  s  s  s  s  s  s  s  s  s  s  s  s  s  s
e|--1---1-------1---1--|----------0-----------3--|--------------------------------------------------|
B|--1---1-------1---1--|----------1-----------3--|--------------------------------------------------|
G|--2---2---x---2---2--|----------0-----------0--|--2--2--2--2--3--3--3--3--3--3--3--3--3--3--3--3--|
D|--3---3---x---3---3--|----------2-----------0--|--3--3--3--3--3--3--3--3--3--3--3--3--3--3--3--3--|
A|--3---3---x---3---3--|--3---3---3-----------2--|--3--3--3--3--3--3--3--3--3--3--3--3--3--3--3--3--|
E|--1---1-------1---1--|--------------3---3---3--|--1--1--1--1--1--1--1--1--1--1--1--1--1--1--1--1--|

                                       
    e   e   q   e   e   q     e   e   e  .q   q     e   e   q   e   e   q     e   e   e  .q   q   
e|----------0-----------3--|--1---1-------1---1--|----------0-----------3--|--1---1-------1---1--|
B|----------1-----------3--|--1---1-------1---1--|----------1-----------3--|--1---1-------1---1--|
G|----------0-----------0--|--2---2---x---2---2--|----------0-----------0--|--2---2---x---2---2--|
D|----------2-----------0--|--3---3---x---3---3--|----------2-----------0--|--3---3---x---3---3--|
A|--3---3---3-----------2--|--3---3---x---3---3--|--3---3---3-----------2--|--3---3---x---3---3--|
E|----------3---3---3---3--|--1---1-------1---1--|--------------3---3---3--|--1---1-------1---1--|

                                       
    e   e   q   e   e   q     e   e   e  .q   q     e   e   q   e   e   q     e   e   s   s   htetw   
e|----------0-----------3--|--1---1-------1---1--|----------0-----------3--|--1---1---x---x---1--|
B|----------1-----------3--|--1---1-------1---1--|----------1-----------3--|--1---1---x---x---1--|
G|----------0-----------0--|--2---2---x---2---2--|----------0-----------0--|--2---2---x---x---2--|
D|----------2-----------0--|--3---3---x---3---3--|----------2-----------0--|--3---3---x---x---3--|
A|--3---3---3-----------2--|--3---3---x---3---3--|--3---3---3-----------2--|--3---3---x---x---3--|
E|----------3---3---3---3--|--1---1-------1---1--|--------------3---3---3--|--1---1---x---x---1--|
   


--------------------------------------------------------------------------------------------------------------------------------------------------------------------------------------------------------------                         
 Guitar II (clean)

Intro

      wr           wr           wr            wr           wr           wr        h   e   s   qts
e|------------|------------|------------|------------|------------|------------|--0--------------|
B|------------|------------|------------|------------|------------|------------|--1-----------1--|
G|------------|------------|------------|------------|------------|------------|--0-----------0--|
D|------------|------------|------------|------------|------------|------------|--2--------------|
A|------------|------------|------------|------------|------------|------------|--3---3---3------|
E|------------|------------|------------|------------|------------|------------|-----------------|


    q   e  e    s   s   s   s   q
e|---------------------------------|
B|--1-----------1---------------1--|
G|--0-------2---------------0------|
D|--2-------------------2----------|
A|--3---3-----------3--------------|
E|---------------------------------|


1st Verse


    q   q   e   e   q     q   s .er  q   e   .e  s     q   q   e   e   q     q   s  .er q   e  .e   s
e|--0---0-----------3--|--1---1------1---1---1---1--|--0---0-----------3--|--1---1------1---1---1---1-|
B|--1---1-----------3--|--1---1------1---1---1---1--|--1---1-----------3--|--1---1------1---1---1---1-|
G|--0---0-----------0--|--2---2------2---2---2---2--|--0---0-----------0--|--2---2------2---2---2---2-|
D|--2---2-----------0--|--3---3------3---3---3---3--|--2---2-----------0--|--3---3------3---3---3---3-|
A|--3---3-----------2--|--3---3------3---3---3---3--|--3---3-----------2--|--3---3------3---3---3---3-|
E|----------3---3---3--|--1---1---------------------|----------3---3---3--|--1---1--------------------|

          
    q   q   e   e  .e   s     q   s   s   e   q   q     q   q   e   e   q     q     .h
e|--0---0-----------3------|------------------1---1--|--0---0-----------3--|---------1-----|
B|--1---1-----------0------|--3---------------1---1--|--1---1-----------3--|--3------1-----|
G|--0---0-----------0------|--3---------------2---2--|--0---0-----------0--|--3------2-----|
D|--2---2-----------0------|--3---------------3---3--|--2---2-----------0--|--3------3-----|
A|--3---3-----------2---0--|--1---1---0-------3---3--|--3---3-----------2--|--1------3-----|
E|----------3---3---3------|--------------3---1---1--|----------3---3---3--|---------1-----|


1st Solo


    e   e   q   e   e   q    .q   q   s   s   q   
e|--0---0---0-----------3--|--1---1--------------|
B|--1---1---1-----------3--|--1---1-----------1--|
G|--0---0---0-----------0--|--2---2-------2------|
D|--2---2---2-----------0--|--3---3---3----------|
A|--3---3---3-----------2--|--3---3--------------|
E|--------------3---3---3--|--1---1--------------|

   
 2nd Verse

                        
                                       
    e   e   q   e   e   q     e   s  .er .q   q     e   e   q   e   e   q     
e|----------0-----------3--|--1---1-------1---1--|----------0-----------3--|
B|----------1-----------3--|--1---1-------1---1--|----------1-----------3--|
G|----------0-----------0--|--2---2-------2---2--|----------0-----------0--|
D|----------2-----------0--|--3---3-------3---3--|----------2-----------0--|
E|--------------3---3---3--|--1---1-------1---1--|--------------3---3---3--|
   
                         
    e   s  sr   e   q   s   s   q     e   e   q   e   e   q         q   s   s   s   e   h
e|--1---1-------x---1--------------|----------0-----------3------|----------------------1--|
B|--1---1-------x---1-----------1--|----------1-----------3------|----------------------1--|
G|--2---2-------x---2-------2------|----------1-----------0------|--3---3---------------2--|
D|--3---3-------x---3---3----------|----------2-----------0------|--3---3---------------3--|
A|--3---3-----------3--------------|--3---3---3-----------2---0--|--1---1---1---0-------3--|
E|--1---1-----------1--------------|--------------3---3---3------|------------------3---1--|

 
    e   e   q   e   e   q     q   s   s   s   s   s   s   s   s   q
e|----------0-----------3--|-----------------------------------------|
B|----------1-----------3--|-----------------------------------------|
G|----------0-----------0--|--3---3---3---3---3---3---3---3---3---3--|
D|----------2-----------0--|--3---3---3---3---3---3---3---3---3---3--|
A|--3---3---3-----------2--|--1---1---1---1---1---1---1---1---1---1--|
E|--------------3---3---3--|-----------------------------------------|


1st Chorus


    q   q   q   q    .q  .q   s s   s s     q   q   q   q     e   e   e   e   s   s   e   q
e|--1---1---1---3--|--0---0--------------|--0---0---0---0--|--2---2---2---2---2---2---2---2--|
B|--1---1---3---3--|--1---1---1----------|--1---1---0---1--|--3---3---3---3---3---3---3---3--|
G|--2---2---2---0--|--0---0---2p0--------|--2---2---1---0--|--2---2---2---2---2---2---2---2--|
D|--3---2---0---0--|--2---2---0----------|--2---2---2---2--|--0---0---0---0---0---0---0---0--|
A|--3---0-------2--|--3---3---------2p0--|--0---0---2---3--|--0---0---0---0---0---0---0---0--|
E|--1-----------3--|---------------------|-----------------|---------------------------------|


      w              w
e|----1-------|------3-------|
B|----1-------|------3-------|
G|----2-------|------0-------|
D|----3-------|------0-------|
A|----3-------|------2-------|
E|----1-------|------3-------|

 (Over driven)

    e   s   s   s s   s   s   e   s s   s   s e     s e   s e   s   s    s   s s   q   sr
e|--1--------------------------------------------|-----------------------------------------|
B|--1--------------------------------------------|--------------8-------10---------8-------|
G|--2-----------------------------------5---7/9--|--9\7---7/9-------9--------7h9-----------|
D|--3-------------------------3---5/7------------|-----------------------------------------|
A|--3-----------------3---5----------------------|-----------------------------------------|
E|--1---1---1---3/5------------------------------|-----------------------------------------|


3rd Verse (Clean)

                                       
    e   e   q   e   e   q     e   q   q   e   s  .e     e   e   q   e   e   q
e|----------0-----------3--|--1---1---1---1---1---1--|----------0-----------3--|
B|----------1-----------3--|--1---1---1---1---1---1--|----------1-----------3--|
G|----------0-----------0--|--2---2---2---2---2---2--|----------0-----------0--|
D|----------2-----------0--|--3---3---3---3---3---3--|----------2-----------0--|
A|--3---3---3-----------2--|--3---3---3---3---3---3--|--3---3---3-----------2--|
E|--------------3---3---3--|--1---1------------------|--------------3---3---3--|

   
                         
    e   q   q   e   s  .e     e   e   q   e  e   .e   s     e   e   s   s   e  q   q
e|--1---1---1---1---1---1--|----------0-----------3------|---------------------1---1--|
B|--1---1---1---1---1---1--|----------1-----------3------|---------------------1---1--|
G|--2---2---2---2---2---2--|----------1-----------0------|--3---3--------------2---2--|
D|--3---3---3---3---3---3--|----------2-----------0------|--3---3--------------3---3--|
A|--3---3---3---3---3---3--|--3---3---3-----------2---0--|--1---1---1---0------3---3--|
E|--1---1---1---1---1---1--|--------------3---3---3------|-----------------3---1---1--|


    e   e   q   e   e   .e   s        w  
e|----------0-----------3------|-------------|
B|----------1-----------3------|-------------|
G|----------1-----------0------|------3------|
D|----------2-----------0------|------3------|
A|--3---3---3-----------2---0--|------1------|
E|--------------3---3---3------|-------------|


2nd Solo (Over Driven)


   qts  s   s   s  qte  s   s      e   h    s  sr   s   s   e      .q  s   s   q  sr  s   s   ste
e|-----------------------------|--------------------------------|---------------------------------|
B|-----------------------------|--------------------------------|---------------------------------|
G|--5-------5---7---7---5---7--|--7br--------------5---7---7br--|--5---5---7---7------5---5---8b--|
D|------7----------------------|--------7---5-------------------|---------------------------------|
A|-----------------------------|--------------------------------|---------------------------------|
E|-----------------------------|--------------------------------|---------------------------------|


     e    s   s   s   e   s   s   s  s    s    s    s     qts   s    s      s    s   qts   s    s      
e|-----------------------------------------------------|-------------------------------------------|
B|---------------------------------------13---13---13--|--13---13---15br---13---15---15---15---13--|
G|--7br---5-------5---5---5---5---5/12-----------------|-------------------------------------------|
D|------------7----------------------------------------|-------------------------------------------|
A|-----------------------------------------------------|-------------------------------------------|
E|-----------------------------------------------------|-------------------------------------------|


   sr   e    s      e      s   .e    s    s    e      s   ste
e|-----------15-------------------------------15br------------|
B|-----15b--------15pbr---13---13---13---13----------13---13--|
G|------------------------------------------------------------|
D|------------------------------------------------------------|
A|------------------------------------------------------------|
E|------------------------------------------------------------|


     s   s     e      s    e    s    s    s    s    s    s    s     q    s  s  s  s  s  s  s  s  q
e|------------15br-----------------------------------------------|----------------------------------|
B|--15---13----------13---13---13---15--------13--------15-------|--13---3--3--3--3--3--3--3--3--3--|
G|---------------------------------------14--------14--------14--|-------3--3--3--3--3--3--3--3--3--|
D|---------------------------------------------------------------|-------3--3--3--3--3--3--3--3--3--|
A|---------------------------------------------------------------|-------1--1--1--1--1--1--1--1--1--|
E|---------------------------------------------------------------|----------------------------------|



2nd Chorus (Clean)


    q   q   q   q    .q  .q   s s   s s     q   q   q   q     e   e   e   e   s   s   e   q
e|--1---1---1---3--|--0---0--------------|--0---0---0---0--|--2---2---2---2---2---2---2---2--|
B|--1---1---3---3--|--1---1---1----------|--1---1---0---1--|--3---3---3---3---3---3---3---3--|
G|--2---2---2---0--|--0---0---2p0--------|--2---2---1---0--|--2---2---2---2---2---2---2---2--|
D|--3---2---0---0--|--2---2---0----------|--2---2---2---2--|--0---0---0---0---0---0---0---0--|
A|--3---0-------2--|--3---3---------2p0--|--0---0---2---3--|--0---0---0---0---0---0---0---0--|
E|--1-----------3--|---------------------|-----------------|---------------------------------|


     q   q   q   q    .q  .q   s s   s s      w              w
e|--1---1---1---3--|--0---0--------------|----1-------|------3-------|
B|--1---1---3---3--|--1---1---1----------|----1-------|------3-------|
G|--2---2---2---0--|--0---0---2p0--------|----2-------|------0-------|
D|--3---2---0---0--|--2---2---0----------|----3-------|------0-------|
A|--3---0-------2--|--3---3---------2p0--|----3-------|------2-------|
E|--1-----------3--|---------------------|----1-------|------3-------|


     
4th Verse

    e   e   q   e   e   q     e   e  er .q   q     e   e   q   e   e   q     e   e  er .q   q    
e|----------0-----------3--|--1---1------1---1--|----------0-----------3--|--1---1------1---1--|
B|----------1-----------0--|--1---1------1---1--|----------1-----------0--|--1---1------1---1--|
G|----------0-----------0--|--2---2------2---2--|----------0-----------0--|--2---2------2---2--|
D|--2---2---2-----------0--|--3---3------3---3--|--2---2---2-----------0--|--3---3------3---3--|
A|--3---3---3---2---2---2--|--3---3------3---3--|--3---3---3---2---2---2--|--3---3------3---3--|
E|--------------3---3---3--|--1---1-------------|--------------3---3---3--|--1---1-------------|

   
                         
    e   e   q   e  e   .e   s     e   e   s   s   e  q   q     e   e   q   e   e   q         w  
e|----------0-----------3------|---------------------1---1--|----------0-----------3--|-------------|
B|----------1-----------0------|---------------------1---1--|----------1-----------0--|-------------|
G|----------1-----------0------|--3---3--------------2---2--|----------1-----------0--|------3------|
D|--2---2---2-----------0------|--3---3--------------3---3--|--2---2---2-----------0--|------3------|
A|--3---3---3---2---2---2---0--|--1---1---1---0------3---3--|--3---3---3---2---2---2--|------1------|
E|--------------3---3---3------|-----------------3---1---1--|--------------3---3---3--|-------------|


Outro (Over Drive)



      wr           wr           wr        .hr   sr   s s   s     .q    s   s   q   s   s   s   s
e|------------|------------|------------|---------------------|-----------------------------------|
B|------------|------------|------------|---------------------|----------------------------5---6--|
G|------------|------------|------------|------------------5--|--5---7br---5---7---5---7----------|
D|------------|------------|------------|------------3/7------|-----------------------------------|
A|------------|------------|------------|---------------------|-----------------------------------|
E|------------|------------|------------|---------------------|-----------------------------------|


    t t s   s s   s s   .q    s s   s   s   s     s   s   s   s   e   s   s   e     q     s   s
e|---------------------------------------------|-------------------------------------------------|
B|--5h6p5--------------------------------------|----------5---6---5---5---6---8b---8pbr---6---8--|
G|----------7p5---------7b---7pbr---5----------|--5---7------------------------------------------|
D|----------------7p5-------------------5---7--|-------------------------------------------------|
A|---------------------------------------------|-------------------------------------------------|
E|---------------------------------------------|-------------------------------------------------|
                                                                                                                                                                                                3
    e   s   s   s    e     e    s    s  s   t t   s   t t   s     s   s  qts  qts   [e   e   e]
e|-------------------------------------------------------------|-------------------------------|
B|------------------8br----------------------------------------|----------------------------5--|
G|--7---5-------5---------7br---5---------------------------5--|--7---5---5---7br---5---7------|
D|----------7-----------------------7---5-------------------5--|-------------------------------|
A|------------------------------------------7\5---3---5/7------|-------------------------------|
E|-------------------------------------------------------------|-------------------------------|


    e    e   e    q   e    e      e      e   s    s  s  s s   s   s   e   q
e|-----------8--------8---------------|--------------------------------------|
B|--6---8b-------8b-------8pbr--------|--------------------------------------|
G|-------------------------------7br--|--5---7b---7p5---7p5---4--------------|
D|------------------------------------|---------------------------5----------|
A|------------------------------------|-------------------------------5---5--|
E|------------------------------------|--------------------------------------|


    t.s   s   s   t.s   s   s   s   s   t.s   s    s   s  .s  .s   s
e|--------------------------------------------------------------------|
B|--------------------------------------------------------------------|
G|--------5---7-----------------5---7--------------5---7---5---5---7--|
D|--5h7---5-------5h7---7---7---5-------5h7---7----5-------5---5------|
A|--------------------------------------------------------------------|
E|--------------------------------------------------------------------|


   .e    t   t   .s  .s   s   t.s  qts  ste    s   s   e   .e   s  .e   t   t   e  
e|------------------------------------------|--------------------------------------|
B|---------------8---10---8-----------------|--------------------------------------|
G|--9--------9----------------9\7---7---7b--|--5---5---7b---5---------------5---7--|
D|------10----------------------------------|-------------------5---7---5----------|
A|------------------------------------------|--------------------------------------|
E|------------------------------------------|--------------------------------------|


    s e    t   t   s   .e   .qts   ste     s   s    e   .e   s   .e    s   t t s
e|---------------------10b---10---10br--|--8---8---10b---8------------------------|
B|-----------------8--------------------|--------------------8---10---10---9p7\5--|
G|--7/9--------9------------------------|-----------------------------------------|
D|--------10----------------------------|-----------------------------------------|
A|--------------------------------------|-----------------------------------------|
E|--------------------------------------|-----------------------------------------|

    
   qts   s   .q    s s   s s      e    e    s   s  .q     e    s   s
e|----------------------------|---------------------------------------|
B|----------------------------|---------------------------------------|
G|--7b---5---7br---7p5---7p5--|--8b---7br---5-------8b---7br---5------|
D|----------------------------|-----------------7------------------7--|
A|----------------------------|---------------------------------------|
E|----------------------------|---------------------------------------|


    s   s   t t   s   t t   s   s   qts   s   s   e      e    e   s s   htetw  
e|---------------------------------------------------|----------------------|
B|---------------------------------------------------|------------------8b--|
G|----------------------------------7br-------7---5--|--7br---5---7p5-------|
D|--5-----------------------5---7---------5----------|----------------------|
A|------7---7\5---3---5/7----------------------------|----------------------|
E|---------------------------------------------------|----------------------|


-------------------------------------------------------------------------------------------------------
-------------------------------------------------------------------------------------------------------


Guitar III (Acoustic)


Intro


    q   q   q   q   .q   .q   q    q   q   q   q     .q  .q   q     q   q   q   q     .q  .q   q
e|--0---0---3---3--|--1---1---1--|--0---0---3---3--|--1---1---1--|--0---0-------3---|--1---1---1--|
B|--1---1---o---3--|--1---1---1--|--1---1---0---0--|--1---1---1--|--1---1---0---0---|--1---1---1--|
G|--0---0---0---0--|--2---2---2--|--0---0---0---0--|--2---2---2--|--0---1---0---0---|--2---2---2--|
D|--2---2---0---0--|--3---3---3--|--2---2---0---0--|--3---3---3--|--2---2---0---0---|--3---3---3--|
A|--3---3---2---2--|--3---3---3--|--3---3---2---2--|--3---3---3--|--3---3---2---2---|--3---3---3--|
E|----------3---3--|-------------|----------3---3--|-------------|----------3---3---|-------------|

   
    q    q    s    e   .e    e     q    q    s    e   .e    e   
e|--0----0----0----0----0----0--|--0----0----0----0----0----0--|
B|--1----1----1----1----1----1--|--1----1----1----1----1----1--|
G|--0----0----0----0----0----0--|--0----0----0----0----0----0--|
D|--2----2----2----2----2----2--|--2----2----2----2----2----2--|
A|--3----3----3----3----3----3--|--3----3----3----3----3----3--|
E|------------------------------|------------------------------|
                         

1st Verse


                                     
    q   q   s  .e   q     e   s  .er  q   e   s  .e     q   q   s  .e   q  
e|--0---0---3---3---3--|--1---1-------1---1---1---1--|--0---0---3---3---3--|
B|--1---1---3---0---0--|--1---1-------1---1---1---1--|--1---1---0---0---0--|
G|--0---0---0---0---0--|--2---2-------2---2---2---2--|--0---0---0---0---0--|
D|--2---2---0---0---0--|--3---3-------3---3---3---3--|--2---2---0---0---0--|
A|--3---3---2---2---2--|--3---3-------3---3---3---3--|--3---3---2---2---2--|
E|----------3---3---3--|-----------------------------|----------3---3---3--|


    e   s  .er  q   e   s  .e     q   q   s  .e   q     q   q   q   s  .e   
e|--1---1-------1---1---1---1--|--0---0---3---3---3--|----------1---1---1--|
B|--1---1-------1---1---1---1--|--1---1---0---0---0--|--3---3---1---1---1--|
G|--2---2-------2---2---2---2--|--0---0---0---0---0--|--3---3---2---2---2--|
D|--3---3-------3---3---3---3--|--2---2---0---0---0--|--3---3---3---3---3--|
A|--3---3-------3---3---3---3--|--3---3---2---2---2--|--1---1---3---3---3--|
E|-----------------------------|----------3---3---3--|----------1---1---1--|


    q   q   s  .e   s        q   .h  
e|--0---0---3---3---3--|----------1--|
B|--1---1---0---0---0--|----------1--|
G|--0---1---0---0---0--|-----3----2--|
D|--2---2---0---0---0--|-----3----3--|
A|--3---3---2---2---2--|-----1----3--|
E|----------3---3---3--|----------1--|


1st Solo


    e   e   q   s  .e   q     e   s  .er  q  .q
e|--0---0---0---3---3---3--|--1---1-------1---1--|
B|--1---1---1---0---0---3--|--1---1-------1---1--|
G|--0---0---0---0---0---0--|--2---2-------2---2--|
D|--2---2---2---0---0---0--|--3---3-------3---3--|
A|--3---3---3---2---2---2--|--3---3-------3---3--|
E|--------------3---3---3--|--1---1-------1---1--|


2nd Verse

                                     
    q   q   s  .e   q     e   s  .er  q   e   s  .e     q   q   s  .e   q  
e|--0---0---3---3---3--|--1---1-------1---1---1---1--|--0---0---3---3---3--|
B|--1---1---3---0---0--|--1---1-------1---1---1---1--|--1---1---0---0---0--|
G|--0---0---0---0---0--|--2---2-------2---2---2---2--|--0---0---0---0---0--|
D|--2---2---0---0---0--|--3---3-------3---3---3---3--|--2---2---0---0---0--|
A|--3---3---2---2---2--|--3---3-------3---3---3---3--|--3---3---2---2---2--|
E|----------3---3---3--|-----------------------------|----------3---3---3--|


    e   s  .er  q   e   s  .e     q   q   s  .e   q     q   q   q   s  .e   
e|--1---1-------1---1---1---1--|--0---0---3---3---3--|----------1---1---1--|
B|--1---1-------1---1---1---1--|--1---1---0---0---0--|--3---3---1---1---1--|
G|--2---2-------2---2---2---2--|--0---0---0---0---0--|--3---3---2---2---2--|
D|--3---3-------3---3---3---3--|--2---2---0---0---0--|--3---3---3---3---3--|
A|--3---3-------3---3---3---3--|--3---3---2---2---2--|--1---1---3---3---3--|
E|-----------------------------|----------3---3---3--|----------1---1---1--|


    q   q   s  .e   s     e   s   s   s   s   s   s   s   s   s   s   q   
e|--0---0---3---3---3--|-------------------------------------------------|
B|--1---1---0---0---0--|--3---3---3---3---3---3---3---3---3---3---3---3--|
G|--0---1---0---0---0--|--3---3---3---3---3---3---3---3---3---3---3---3--|
D|--2---2---0---0---0--|--3---3---3---3---3---3---3---3---3---3---3---3--|
A|--3---3---2---2---2--|--1---1---1---1---1---1---1---1---1---1---1---1--|
E|----------3---3---3--|-------------------------------------------------|

 
1st Chorus


   q   q   q   q     .q  .q   q     q   q   q   q     e   e   e   e   s   s   e   q
e|--1---1---1---3--|--0---0---0--|--0---0---0---0--|--2---2---2---2---2---2---2---2--|
B|--1---1---3---3--|--1---1---1--|--1---1---0---1--|--3---3---3---3---3---3---3---3--|
G|--2---2---2---0--|--0---0---0--|--2---2---1---0--|--2---2---2---2---2---2---2---2--|
D|--3---2---0---0--|--2---2---2--|--2---2---2---2--|--0---0---0---0---0---0---0---0--|
A|--3---0-------2--|--3---3---3--|--0---0---2---3--|--0---0---0---0---0---0---0---0--|
E|--1-----------3--|-------------|-----------------|---------------------------------|


      w              w            w              w
e|----1-------|------3-------|----1-------|------3-------|
B|----1-------|------3-------|----1-------|------3-------|
G|----2-------|------0-------|----2-------|------0-------|
D|----3-------|------0-------|----3-------|------0-------|
A|----3-------|------2-------|----3-------|------2-------|
E|----1-------|------3-------|----1-------|------3-------|


3rd Verse

                                    
    e   e   q   s  .e   q     e   s  .er  q   e   s  .e     q   q   s  .e   q  
e|--0---0---0---3---3---3--|--1---1-------1---1---1---1--|--0---0---3---3---3--|
B|--1---1---1---3---0---0--|--1---1-------1---1---1---1--|--1---1---0---0---0--|
G|--0---0---0---0---0---0--|--2---2-------2---2---2---2--|--0---0---0---0---0--|
D|--2---2---2---0---0---0--|--3---3-------3---3---3---3--|--2---2---0---0---0--|
A|--3---3---3---2---2---2--|--3---3-------3---3---3---3--|--3---3---2---2---2--|
E|--------------3---3---3--|-----------------------------|----------3---3---3--|


    e   s  .er  q   e   s  .e     q   q   s  .e   q     q   q   q   s  .e   
e|--1---1-------1---1---1---1--|--0---0---3---3---3--|----------1---1---1--|
B|--1---1-------1---1---1---1--|--1---1---0---0---0--|--3---3---1---1---1--|
G|--2---2-------2---2---2---2--|--0---0---0---0---0--|--3---3---2---2---2--|
D|--3---3-------3---3---3---3--|--2---2---0---0---0--|--3---3---3---3---3--|
A|--3---3-------3---3---3---3--|--3---3---2---2---2--|--1---1---3---3---3--|
E|-----------------------------|----------3---3---3--|----------1---1---1--|


    q   q   s  .e   s        w   
e|--0---0---3---3---3--|-----1-----|
B|--1---1---0---0---0--|-----3-----|
G|--0---1---0---0---0--|-----3-----|
D|--2---2---0---0---0--|-----3-----|
A|--3---3---2---2---2--|-----1-----|
E|----------3---3---3--|-----------|



2nd Solo


    e   e   q   e   e   q     e   e  er  .q   q     e   e   q   e   e   q     e   e  er  .q   q 
e|--0---0---0---3---3---3--|--1---1-------1------|--0---0---0---3---3---3--|--1---1-------1------|
B|--1---1---1---3---3---3--|--1---1-------1---3--|--1---1---1---3---3---3--|--1---1-------1---3--|
G|--0---0---0---0---0---0--|--2---2-------2---3--|--0---0---0---0---0---0--|--2---2-------2---3--|
D|--2---2---2---0---0---0--|--3---3-------3---3--|--2---2---2---0---0---0--|--3---3-------3---3--|
A|--3---3---3---2---2---2--|--3---3-------3---1--|--3---3---3---2---2---2--|--3---3-------3---1--|
E|--------------3---3---3--|--1---1-------1------|--------------3---3---3--|--1---1-------1------|


    e   e   q   e   e   q     e   e   s   s   e   q   q     q   q   s   .e  q        
e|--0---0---0---3---3---3--|----------------------1---1--|--0---0---3---3---3--|
B|--1---1---1---3---3---3--|----------------------1---1--|--1---1---0---3---0--|
G|--0---0---0---0---0---0--|--3---3---------------2---2--|--0---0---0---0---0--|
D|--2---2---2---0---0---0--|--3---3---------------3---3--|--2---2---0---0---0--|
A|--3---3---3---2---2---2--|--1---1---1---0-------3---3--|--3---3---2---2---2--|
E|--------------3---3---3--|------------------3---1---1--|----------3---3---3--|


    e   s   s   s   s   s   s   s   s   s   s   q
e|-------------------------------------------------|
B|--3---3---3---3---3---3---3---3---3---3---3---3--|
G|--3---3---3---3---3---3---3---3---3---3---3---3--|
D|--3---3---3---3---3---3---3---3---3---3---3---3--|
A|--1---1---1---1---1---1---1---1---1---1---1---1--|
E|-------------------------------------------------|


2nd Chorus

  q   q   q   q     .q  .q   q     q   q   q   q      e   e   e   e   s   s   e   q
e|--1---1---1---3--|--0---0---0--|--0---0---0---0--|--2---2---2---2---2---2---2---2--|
B|--1---1---3---3--|--1---1---1--|--1---1---0---1--|--3---3---3---3---3---3---3---3--|
G|--2---2---2---0--|--0---0---0--|--2---2---1---0--|--2---2---2---2---2---2---2---2--|
D|--3---2---0---0--|--2---2---2--|--2---2---2---2--|--0---0---0---0---0---0---0---0--|
A|--3---0-------2--|--3---3---3--|--0---0---2---3--|--0---0---0---0---0---0---0---0--|
E|--1-----------3--|-------------|-----------------|---------------------------------|


    q   q   q   q     .q  .q   q      w              w
e|--1---1---1---3--|--0---0---0--|----1-------|------3-------|
B|--1---1---3---3--|--1---1---1--|----1-------|------3-------|
G|--2---2---2---0--|--0---0---0--|----2-------|------0-------|
D|--3---2---0---0--|--2---2---2--|----3-------|------0-------|
A|--3---0-------2--|--3---3---3--|----3-------|------2-------|
E|--1-----------3--|-------------|----1-------|------3-------|


4th Verse


    e   e   q   s  .e   q     e   s  .er  q   e   s  .e     q   q   s  .e   q  
e|--0---0---0---3---3---3--|--1---1-------1---1---1---1--|--0---0---3---3---3--|
B|--1---1---1---3---0---0--|--1---1-------1---1---1---1--|--1---1---0---0---0--|
G|--0---0---0---0---0---0--|--2---2-------2---2---2---2--|--0---0---0---0---0--|
D|--2---2---2---0---0---0--|--3---3-------3---3---3---3--|--2---2---0---0---0--|
A|--3---3---3---2---2---2--|--3---3-------3---3---3---3--|--3---3---2---2---2--|
E|--------------3---3---3--|-----------------------------|----------3---3---3--|


    e   s  .er  q   e   s  .e     q   q   s  .e   q     q   q   q   s  .e   
e|--1---1-------1---1---1---1--|--0---0---3---3---3--|----------1---1---1--|
B|--1---1-------1---1---1---1--|--1---1---0---0---0--|--3---3---1---1---1--|
G|--2---2-------2---2---2---2--|--0---0---0---0---0--|--3---3---2---2---2--|
D|--3---3-------3---3---3---3--|--2---2---0---0---0--|--3---3---3---3---3--|
A|--3---3-------3---3---3---3--|--3---3---2---2---2--|--1---1---3---3---3--|
E|-----------------------------|----------3---3---3--|----------1---1---1--|


    q   q   s  .e   s        w   
e|--0---0---3---3---3--|-----1-----|
B|--1---1---0---0---0--|-----3-----|
G|--0---1---0---0---0--|-----3-----|
D|--2---2---0---0---0--|-----3-----|
A|--3---3---2---2---2--|-----1-----|
E|----------3---3---3--|-----------|


Qutro


    q  .e   s   q  .e   s     q   e  .e  .e   s   s   s   s     q  .e   s   q  .e   s 
e|--0---0---0---3---3---3--|--1---1---1---1---1---1---1---1--|--0---0---0---3---3---3--|
B|--1---1---1---3---0---3--|--1---1---1---1---1---1---1---1--|--1---1---1---0---0---3--|
G|--0---0---0---0---0---0--|--2---2---2---2---2---2---2---2--|--0---0---0---0---0---0--|
D|--2---2---2---0---0---0--|--3---3---3---3---3---3---3---3--|--2---2---2---0---0---0--|
A|--3---3-------2---2------|--3-------3---3---------------3--|--3---3-------2---2------|
E|--------------3---3------|---------------------------------|--------------3---3------|


    q   e  .e  .e   s   s   s   s     q  .e   s   q  .e   s     q   e  .e  .e   s   s   s   s 
e|--1---1---1---1---1---1---1---1--|--0---0---0---3---3---3--|--1---1---1---1---1---1---1---1---|
B|--1---1---1---1---1---1---1---1--|--1---1---1---0---0---0--|--1---1---1---1---1---1---1---1---|
G|--2---2---2---2---2---2---2---2--|--0---0---0---0---0---0--|--2---2---2---2---2---2---2---2---|
D|--3---3---3---3---3---3---3---3--|--2---2---2---0---0---0--|--3---3---3---3---3---3---3---3---|
A|--3-------3---3---------------3--|--3---3---2---2---2------|--3-------3---3---------------3---|
E|---------------------------------|--------------3---3------|----------------------------------|


    q  .e   s   q  .e   s     q   e  .e  .e   s   s   s   s     q  .e   s   q  .e   s 
e|--0---0---0---3---3---3--|--1---1---1---1---1---1---1---1--|--0---0---0---3---3---3--|
B|--1---1---1---3---0---3--|--1---1---1---1---1---1---1---1--|--1---1---1---0---0---3--|
G|--0---0---0---0---0---0--|--2---2---2---2---2---2---2---2--|--0---0---0---0---0---0--|
D|--2---2---2---0---0---0--|--3---3---3---3---3---3---3---3--|--2---2---2---0---0---0--|
A|--3---3-------2---2------|--3-------3---3---------------3--|--3---3-------2---2------|
E|--------------3---3------|---------------------------------|--------------3---3------|


   q   e  .e  .e   s   s   s   s     q  .e   s   q  .e   s     
e|--1---1---1---1---1---1---1---1--|--0---0---0---3---3---3--|
B|--1---1---1---1---1---1---1---1--|--1---1---1---0---0---0--|
G|--2---2---2---2---2---2---2---2--|--0---0---0---0---0---0--|
D|--3---3---3---3---3---3---3---3--|--2---2---2---0---0---0--|
A|--3-------3---3---------------3--|--3---3---2---2---2------|
E|---------------------------------|--------------3---3------|


    s  s  s  s  s  s  s  s  s  s  s  s  s  s  s  s
e|--------------------------------------------------|
B|--------------------------------------------------|
G|--2--2--2--2--3--3--3--3--3--3--3--3--3--3--3--3--|
D|--3--3--3--3--3--3--3--3--3--3--3--3--3--3--3--3--|
A|--3--3--3--3--3--3--3--3--3--3--3--3--3--3--3--3--|
E|--1--1--1--1--1--1--1--1--1--1--1--1--1--1--1--1--|


    e   s   s   q   e   s   s   q     e   e   s   s  .e  .e   s   s   e     
e|--0---0---0---0---3---3---3---3--|--1---1---x---x---2---2---2---2---2--|
B|--1---1---1---1---3---3---3---3--|--1---1---x---x---3---3---3---3---3--|
G|--0---0---0---0---0---0---0---0--|--2---2---x---x---2---2---2---2---2--|
D|--2---2---2---2---0---0---0---0--|--3---3---x---x---0---0---0---0---0--|
A|--3---3---3---3---2---2---2---2--|--3---3------------------------------|
E|------------------3---3---3---3--|--1---1------------------------------|


    e   s   s   q   e   s   s   q     e   e   s   s  .e  .e   s   s   e     
e|--0---0---0---0---3---3---3---3--|--1---1---x---x---2---2---2---2---2--|
B|--1---1---1---1---3---3---3---3--|--1---1---x---x---3---3---3---3---3--|
G|--0---0---0---0---0---0---0---0--|--2---2---x---x---2---2---2---2---2--|
D|--2---2---2---2---0---0---0---0--|--3---3---x---x---0---0---0---0---0--|
A|--3---3---3---3---2---2---2---2--|--3---3------------------------------|
E|------------------3---3---3---3--|--1---1------------------------------|


    e   s   s   q   e   s   s   q     e   e   s   s  .e  .e   s   s   e     
e|--0---0---0---0---3---3---3---3--|--1---1---x---x---2---2---2---2---2--|
B|--1---1---1---1---3---3---3---3--|--1---1---x---x---3---3---3---3---3--|
G|--0---0---0---0---0---0---0---0--|--2---2---x---x---2---2---2---2---2--|
D|--2---2---2---2---0---0---0---0--|--3---3---x---x---0---0---0---0---0--|
A|--3---3---3---3---2---2---2---2--|--3---3------------------------------|
E|------------------3---3---3---3--|--1---1------------------------------|


    e   s   s   q   e   s   s   q     e   e   s   s   htetw    
e|--0---0---0---0---3---3---3---3--|--1---1---1---1---1--|
B|--1---1---1---1---3---3---3---3--|--1---1---1---1---1--|
G|--0---0---0---0---0---0---0---0--|--2---2---2---2---2--|
D|--2---2---2---2---0---0---0---0--|--3---3---3---3---3--|
A|--3---3---3---3---2---2---2---2--|--3---3---3---3---3--|
E|------------------3---3---3---3--|--1---1---1---1---1--|


************************************

| /   slide up
| \   slide down
| h   hammer-on
| p   pull-off
| ~   vibrato
| +   harmonic
| x   Mute note
| b   Bend
| pb  Pre-bend
| br  Bend release
| pbr Pre-bend release
| brb Bend release bend

************************************
Добавлено: 11.06.2016
Другие материалы по этой песне:

Страница создана 24.11.2013
http://primanota.ru/outlaws/it-follows-from-your-heart-chords.htm
Привет, Гость.
Предлагаем пройти революционный курс по гитаре.
Подарок от PrimaNota.Ru, забирай!