PrimaNota.ru - самый крупный в мире бесплатный архив песенных текстов, аккордов, табулатур и нот


Outernational - In Their Sights - таба, видео

Регистрация Запомнить меня
Войти через:  Facebook Google Twitter Vk Yandex Mail.ru

Outernational - In Their Sights - таба, видео

Печатать
Просмотров: 83
-----------------------------------------------------------------------------
			     In Their Sights – ¡Outernational!
-----------------------------------------------------------------------------

Tabbed by:InsomniacOkami247
Tuning: Standard

PART 1 0:00 - 0:26

e|------------------------------------------------------------------| x 4
B|------------------------------------------------------------------|
G|------------------------------------------------------2-4---------|
D|--------------------------------------------------2-4-------------|
A|----------------------------------------------2-4-----------------|
E|-2-2-0--2-2-0--2-2-0--2-2-0--2-2-0--2-2-0-2-4---------------------|

PART 2 0:27 - 0:39

e|-2b--2b-2b------| x 16
B|-2b--2b-2b------|
G|----------------|
D|----------------|
A|----------------|
E|----------------|

PART 3 0:40 - 0:52

e|------------------------------------------------------------------| x 2
B|------------------------------------------------------------------|
G|------------------------------------------------------2-4---------|
D|--------------------------------------------------2-4-------------|
A|----------------------------------------------2-4-----------------|
E|-2-2-0--2-2-0--2-2-0--2-2-0--2-2-0--2-2-0-2-4---------------------|

PART 4 0:53 - 1:05

e|-2b--2b-2b------| x 16
B|-2b--2b-2b------|
G|----------------|
D|----------------|
A|----------------|
E|----------------|

PART 5 1:06 – 1:11

e|------2--------2--------2--------2------0-----0--------------------------|
B|-2b-2b----2b-2b----2b-2b----2b-2b----0-0---0-0---------------------------|
G|-------------------------------------------------------------------------|
D|-------------------------------------------------------------------------|
A|-------------------------------------------------------------------------|
E|----------------------------------------12+-12+-12+-12+-12+-12+-12+-12+--|

PART 6 1:12 – 1:37

e|---------------------------| x 4
B|---------------------------|
G|------11--9--4-------6-----|
D|-4----11--9--4----7--6-----|
A|-4----9---7--6----7--4-----|
E|-2----------------5--------|

PART 7 1:38 – 1:57

e|------------------------------------------------------------------| x 3
B|------------------------------------------------------------------|
G|------------------------------------------------------2-4---------|
D|--------------------------------------------------2-4-------------|
A|----------------------------------------------2-4-----------------|
E|-2-2-0--2-2-0--2-2-0--2-2-0--2-2-0--2-2-0-2-4---------------------|

PART 8 1:58 – 2:09

e|-2b--2b-2b------| x 16
B|-2b--2b-2b------|
G|----------------|
D|----------------|
A|----------------|
E|----------------|

PART 9 2:10 – 2:35

e|---------------------------| x 4
B|---------------------------|
G|------11--9--4-------6-----|
D|-4----11--9--4----7--6-----|
A|-4----9---7--6----7--4-----|
E|-2----------------5--------|

PART 10 2:36 – 2:48			
		
e|---------------------------|		
B|---------------------------|		
G|---------------------------|		
D|---------------------------|		
A|-------2-4----4-2-0-4-2----|		
E|-0-2-4---------------------|		

THEN
e|---------------------------------------|
B|---------------------------------------|
G|---------------------------------------|
D|---------------------------------------|
A|-------2-4----4-2-0-4-2---------0-0--2-|
E|-0-2-4---------------------4-4---------|


PART 11 2:49 – 2:54

e|-----------------------------------------|
B|-----------------------------------------|
G|-----------------------------------------|
D|--------------4-4---2----2-4-6-4-2--2----|
A|-------2-4--------4----------------4-----|
E|-0-2-4-----------------------------------|




PART 12 2:55 – 3:09 (END) 

e|-----------------------------------------|
B|-----------------------------------------|
G|------------------------1----2b------4b--|
D|----------------------4------------------|
A|-------2-4-------2-4---------------------|
E|-0-2-4-----0-2-4-------------------------|

************************************

| /   slide up
| \   slide down
| h   hammer-on
| p   pull-off
| ~   vibrato
| +   harmonic
| x   Mute note
| b   Bend

************************************
Добавлено: 24.05.2012
Другие материалы по этой песне:
  • Аккорды и текст

Страница создана 24.05.2012
http://primanota.ru/outernational/in-their-sights-chords.htm
Привет, Гость.
Предлагаем пройти революционный курс по гитаре.
Подарок от PrimaNota.Ru, забирай!