PrimaNota.ru - самый крупный в мире бесплатный архив песенных текстов, аккордов, табулатур и нот


Outer Circle - It Must Be Wonderful - таба, видео

Регистрация Запомнить меня
Войти через:  Facebook Google Twitter Vk Yandex Mail.ru

Outer Circle - It Must Be Wonderful - таба, видео

Печатать
Просмотров: 84
Уроки эстрадного вокала в Санкт-Петербурге
		   It Must Be Wonderful
by Outer Circle
copyright Tooth and Nail Records
tabbed by Agent Jules


intro:

e|------------------
B|------------------
G|-5-5-5-5-5-5------
D|-5-5-5-5-5-5--7-7-
A|-3-3-3-3-3-3--7-7-
E|--------------5-5-


verse:

e|------------------------------------
B|------------------------------------
G|-4-4-4-4-----------7-7-7-7----------
D|-4-4-4-4--5-5-5-5--7-7-7-7--7-7-7-7-
A|-2-2-2-2--5-5-5-5--5-5-5-5--7-7-7-7-
E|----------3-3-3-3-----------5-5-5-5-

chorus:

e|------------------
B|------------------
G|-9-9-9-9-9--------
D|-9-9-9-9-9--9-7-9-
A|-7-7-7-7-7--9-7-9-
E|------------7-5-7-

Intro
Verse
Chorus
Bass Only

Bridge:

e|-------------------------------------
B|-------------------------------------
G|-9-9-9-9-----------7-7-7-7-----------
D|-9-9-9-9--9-9-9-9--7-7-7-7--7-7-7-7--
A|-7-7-7-7--9-9-9-9--5-5-5-5--7-7-7-7--
E|----------7-7-7-7-----------5-5-5-5--

Intro
Verse


That's it! Listen to the CD, you'll get the feel!     
Добавлено: 24.07.2013
Вам также может быть интересно:
Другие материалы по этой песне:
  • Аккорды и текст

Страница создана 24.07.2013
http://primanota.ru/outer-circle/it-must-be-wonderful-chords.htm
Привет, Гость.
Предлагаем пройти революционный курс по гитаре.
Подарок от PrimaNota.Ru, забирай!