PrimaNota.ru - самый крупный в мире бесплатный архив песенных текстов, аккордов, табулатур и нот


Out Hud - The Stoked American - текст песни, бас-таба, видео

Регистрация Запомнить меня
Войти через:  Facebook Google Twitter Vk Yandex Mail.ru

Out Hud - The Stoked American - текст песни, бас-таба, видео

Печатать
Просмотров: 88
This is the first time I've ever done tabs for a song so it's not exact so sorry about that.

(0:08)
G|--------------------------------|
D|--------------------------------|
A|----3-3-3-3---------------------|
E|--------------------------------|

(0:19)
G|--------------------------------|
D|--------------------------------|
A|----3--3--3--3------------------|
E|--------------------------------|

(0:30)-(1:56)
G|------------------------------|
D|------------------------------|
A|--3--3--3--3------------------|
E|-----------5--7---------------|

(0:57) repeats until end of song 
G|-------------------------------------|
D|-------------------------------------|
A|----3--3--3--3-------5/7--0--3--3--0-|
E|---------------5--5------------------|

G|---------------------------------|
D|---------------------------------|
A|-----5/7--0--3--3--0-------------|
E|---------------------------------|

G|---------------------------------|
D|---------------------------------|
A|-----5/7--0--3--3--0-------------|
E|---------------------------------|

G|---------------------------------|
D|---------------------------------|
A|-----5/7--0--3--3--0-------------|
E|---------------------------------|

G|---------------------------------|
D|---------------------------------|
A|-----5/7--0--3--5/3--0-----------|
E|---------------------------------|

G|---------------------------------|
D|---------------------------------|
A|-----5/7--0--3--5/3--0-----------|
E|---------------------------------|
Добавлено: 10.11.2013
Другие материалы по этой песне:
  • Аккорды и текст

Страница создана 02.03.2012
http://primanota.ru/out-hud/the-stoked-american-chords.htm
Привет, Гость.
Предлагаем пройти революционный курс по гитаре.
Подарок от PrimaNota.Ru, забирай!