PrimaNota.ru - самый крупный в мире бесплатный архив песенных текстов, аккордов, табулатур и нот


Our Last Night - The Messenger - таба, видео

Регистрация Запомнить меня
Войти через:  Facebook Google Twitter Vk Yandex Mail.ru

Our Last Night - The Messenger - таба, видео

Печатать
Просмотров: 161
SONG: The Messenger
BAND: Our Last Night
ALBUM: The Ghost Among Us
TUNING: Db – Ab – Db – Gb – Bb – Eb
Sorry this tab took so long as I have had to move house,
and i now have a band which is taking quiet alot of time away
from my tabbing! lol! check us out if you wish at:
www.myspace.com/oceansawayrock
so yea lots of people are hitting me up wanting me to tab this
song out, and as you can see i caved in and did it. I've
decided I want to try and tab out the majority of "The Ghosts
Among Us" by the end of the year...so that should be good for
y'all : )
HERE WE GO!!!

.	=	Palm mute
x	=	Mute
h	=	Hammer on
p	=	Pull off
/\	=	Slide
^	=	Harmonic

Guitar 1 (Right Speaker)
-------------------------------------------------------
|---------------------------------------|\
|--7p0----8p0---------------------------| |
|---------------------------------------| |
|------5---------2--2-2-2--5-4-5-7-5-4--| |
|-------------7--2--2-2-2---------------| |
|----------------2--2-2-2---------------| |
pm               .  . . .                 |REPEAT
|---------------------------------------| |
|--7p0----8p0---------------------------| |
|----------------5--5-5-5---------------| |
|------5---------5--5-5-5--4-5----------| |
|-------------7--3--3-3-3----------5/7--| |
|-------------------------0-----5-------|/
pm               .  . . .

|-------------------------------------|\
|--7p0----8p0-------------------------| \
|-------------------------------------|  |
|------5---------2-2--2--5-4-5-7-5-4--|  |
|-------------7--2-2--2---------------|  |
|----------------2-2--2---------------|  |
                                         |REPEAT X4
|--------------------------------------| |
|--------------------------------------| |
|----4-----------5-5--4----------------| |
|--5----5-4-5\2--5-5--4--4--5----------| |
|----------------3-3--2-----------5/7--| |
|------------------------------5-------|/

|--0--|
|--0--|
|--0--|
|--0--|
|-----|
|-----|

|--------------------------------|\
|--------------------------------||
|------------------------7-------||REPEAT
|----2---5---4-----7br-----4b5r--||
|----------------5-----5---------||
|--0---0---0---0-----------------|/
pm .   .   .   .
|---------------------------------|
|---------------------------------|
|---------------------------------|
|----2---5---4---------------5-4--|
|----------------5--7-5---5-------|
|--0---0---0---0--------5---------|
pm .   .   .   .    . . . .  . . 
|--------------------------------|
|--------------------------------|
|------------------------7-------|
|----2---5---4-----7br-----4b5r--|
|----------------5-----5---------|
|--0---0---0---0-----------------|
pm .   .   .   .
|---------------------------------------------|
|---------------------------------------------|
|---------------------------------------------|
|----2---5---4---------------5-4--------------|
|----------------5--7-5---5------5-5-5-5-5-5--|
|--0---0---0---0--------5---------------------|
pm .   .   .   .    . . . .  . .
|-----------------------------------|
|-----------------------------------|
|--5-5-5-5-5-5-5-5-5-5-5-5-5-5-5-5--|
|--5-5-5-5-5-5-5-5-5-5-5-5-5-5-5-5--|
|--3-3-3-3-3-3-3-3-3-3-3-3-3-3-3-3--|
|-----------------------------------|

|-------------------------------------|
|-------------------------------------|
|--5-5-5-5-5-5-5-5-5--11111111111111--|
|--5-5-5-5-5-5-5-5-5---x-x-x-x-x-x-x--|
|--3-3-3-3-3-3-3-3-3---9-9-9-9-9-9-9--|
|-------------------------------------|

|--------------------------|
|--------------------------|
|-------------7------------|
|--2-2-2-2-2--7--2--7/9\7--|
|--2-2-2-2-2--5--2---------|
|--2-2-2-2-2-----2---------|

|-----------------7------10---------|
|-----------------------------------|
|-------------7-----7h9--------7/9--|
|--2-2-2-2-2--7-------------9-------|
|--2-2-2-2-2--5---------------------|
|--2-2-2-2-2------------------------|

|-----------------------------------|
|-----------------------------------|
|--5-5-5-5-5-5-5-5-5-5-5-5-5-5-5-5--|
|--5-5-5-5-5-5-5-5-5-5-5-5-5-5-5-5--|
|--3-3-3-3-3-3-3-3-3-3-3-3-3-3-3-3--|
|-----------------------------------|

|-------------------------------------|
|-------------------------------------|
|--5-5-5-5-5-5-5-5-5--14141414141414--|
|--5-5-5-5-5-5-5-5-5---x-x-x-x-x-x-x--|
|--3-3-3-3-3-3-3-3-3--12121212121212--|
|-------------------------------------|

|--------------------------|
|--------------------------|
|-------------7------------|
|--2-2-2-2-2--7--2--7/9\7--|
|--2-2-2-2-2--5--2---------|
|--2-2-2-2-2-----2---------|

|-----------------7------10---------|
|-----------------------------------|
|-------------7-----7h9--------7/9--|
|--2-2-2-2-2--7-------------9-------|
|--2-2-2-2-2--5---------------------|
|--2-2-2-2-2------------------------|

|------------------------------------------------------|
|------------------------------------------------------|
|------------------------------------------------------|
|------9-----9--------12------12-----------------------|
|----7-----7-------10------10------7h10p7h10--6h9p6h9--|
|--9-----9------10------10-----------------------------|

|----------------------------|
|----------------------------|
|----------------------------|
|--2-2-2-2-2-2-2-2-2-2--5p4--|
|--2-2-2-2-2-2-2-2-2-2-------|
|--2-2-2-2-2-2-2-2-2-2-------|

|------------------------------------------------|
|------------------------------------------------|
|------------------------------------------------|
|--5-5-5-5-5-5-----------------------------------|
|--7-7-7-7-7-7--5-5-5-5-5-5-5-5-5-5-5-5-5-5-5-5--|
|------------------------------------------------|

|-----------------------------------|
|-----------------------------------|
|--4-4-4-4-4-4-4-4-4-4-4-4-4-4-4-4--|
|--4-4-4-4-4-4-4-4-4-4-4-4-4-4-4-4--|
|--2-2-2-2-2-2-2-2-2-2-2-2-2-2-2-2--|
|-----------------------------------|

|--7p0-5/7p0—10/12p0—14/15p0—17/19--|
|-----------------------------------|
|-----------------------------------|
|-----------------------------------|
|-----------------------------------|
|-----------------------------------|

|----------------------------|
|----------------------------|
|----------------------------|
|--2-2-2-2-2-2-2-2-2-2--5p4--|
|--2-2-2-2-2-2-2-2-2-2-------|
|--2-2-2-2-2-2-2-2-2-2-------|

|------------------------------------------------|
|------------------------------------------------|
|------------------------------------------------|
|--5-5-5-5-5-5--4-4-4-4-4-4-4-4-4-4-4-4-4-4-4-4--|
|--7-7-7-7-7-7--5-5-5-5-5-5-5-5-5-5-5-5-5-5-5-5--|
|------------------------------------------------|

|-----------------------------------|
|-----------------------------------|
|--4-4-4-4-4-4-4-4-4-4-4-4-4-4-4-4--|
|--4-4-4-4-4-4-4-4-4-4-4-4-4-4-4-4--|
|--2-2-2-2-2-2-2-2-2-2-2-2-2-2-2-2--|
|-----------------------------------|

|--7p0-5/7p0—10/12p0—14/15p0—17/19—14/15p0—12p0--------|
|-----------------------------------------------10h12--|
|------------------------------------------------------|
|------------------------------------------------------|
|------------------------------------------------------|
|------------------------------------------------------|

|--------------------------------------------------|
|--------------------------------------------------|
|------------------------------------------0-0--0--|
|--2-2-2-2-2--2-2--2-2-2--2-2-2-2-2--2-2--2-2---2--|
|--2-2-2-2-2--2-2--2-2-2--2-2-2-2-2--2-2-----------|
|--2-2-2-2-2--2-2--2-2-2--2-2-2-2-2--2-2-----------|
pm . . . . .  . .  . . .  . . . . .  . . 
|---------------------------------------|
|---------------------------------------|
|--------------------5^-----------------|
|--2-2-2--2-2-2-2-2--5^2-2--2-2--2-2-2--|
|--2-2-2--2-2-2-2-2----2-2--2-2--2-2-2--|
|--2-2-2--2-2-2-2-2----2-2--2-2--2-2-2--|
pm . . .  . . . . .    . .  . .  . . .  
|--------------------------------|
|--------------------------------|
|--7p0----------------------7h9--|
|--------4h5-4h5----4h5-7/9------|
|------5----------2--------------|
|--------------------------------|

|--------------------------------------------------|
|--------------------------------------------------|
|------------------------------------------0-0--0--|
|--2-2-2-2-2--2-2--2-2-2--2-2-2-2-2--2-2--2-2---2--|
|--2-2-2-2-2--2-2--2-2-2--2-2-2-2-2--2-2-----------|
|--2-2-2-2-2--2-2--2-2-2--2-2-2-2-2--2-2-----------|
pm . . . . .  . .  . . .  . . . . .  . . 
|---------------------------------------|
|---------------------------------------|
|--------------------5^-----------------|
|--2-2-2--2-2-2-2-2--5^2-2--2-2--2-2-2--|
|--2-2-2--2-2-2-2-2----2-2--2-2--2-2-2--|
|--2-2-2--2-2-2-2-2----2-2--2-2--2-2-2--|
pm . . .  . . . . .    . .  . .  . . .  
|---------------------------------------------|
|---------------------------------------------|
|--7p0------------------------0-2-0---0--4----|
|--------7/9-4h5--------2h4h5-------4------5--|
|------5----------2h4h5-----------------------|
|---------------------------------------------|

|--------------------|
|--------------------|
|--------------------|
|--------0--------0--|
|--------------------|
|--5--4-----5--4-----|

|----------------------------------------------|
|----------------------------------------------|
|------------0-0-0-0---------------------------|
|--2--2-2-2--2-2-2-2--2-2--2-4---5p4p2--5p4p2--|
|--2--2-2-2-----------2-2--2-4-----------------|
|--2--2-2-2-----------2-2--2-4-----------------|
pm    . . .           . .  . .
|----------------------------------------------------------|
|----------------------------------------------------------|
|------------0-0-0-0---------------------------------------|
|--2--2-2-2--2-2-2-2--2-2--2-4---5p4p2--5p4p2-/4-----------|
|--2--2-2-2-----------2-2--2-4-------------------5-7-------|
|--2--2-2-2-----------2-2--2-4------------------------4-5--|
pm    . . .           . .  . .
|----------------------------------------------|
|----------------------------------------------|
|------------0-0-0-0---------------------------|
|--2--2-2-2--2-2-2-2--2-2--2-4---9p7p5--9p7p5--|
|--2--2-2-2-----------2-2--2-4-----------------|
|--2--2-2-2-----------2-2--2-4-----------------|
pm    . . .           . .  . .
|---------------------------------------------------------------|
|---------------------------------------------------------------|
|------------0-0-0-0--------------------------------------------|
|--2--2-2-2--2-2-2-2--2--9p7---9p7p5--9p7p5---------5h7----5h7--|
|--2--2-2-2-----------2---------------------------9------9------|
|--2--2-2-2-----------2----------------------5/7----------------|
pm    . . .           . 

|----------------|
|----------------|
|----------------|
|--2--4--5--7/9--|
|--2--4--5--7/9--|
|--2--4--5--7/9--|

|-----------------------------------|\\
|-----------------------------------|| \
|--5-5-5-5-5-5-5-5-5-5-5-5-5-5-5-5--||  \
|--5-5-5-5-5-5-5-5-5-5-5-5-5-5-5-5--||REPEAT
|--3-3-3-3-3-3-3-3-3-3-3-3-3-3-3-3--||    \
|-----------------------------------|/     \
                                            |REPEAT X2
|-------------|  |--7-----10----------|     |
|-------------|  |--------------------|    /
|--------4/7--|  |----7h9--------7/9--|   /
|--4h5--------|X6|------------9-------|  /
|-------------|  |--------------------| /
|-------------|  |--------------------|/

|-----------------------------------|\
|-----------------------------------||
|--5-5-5-5-5-5-5-5-5-5-5-5-5-5-5-5--||
|--5-5-5-5-5-5-5-5-5-5-5-5-5-5-5-5--||REPEAT
|--3-3-3-3-3-3-3-3-3-3-3-3-3-3-3-3--||
|-----------------------------------|/

|---------------------------|\
|---------------------------||
|---------------------------||
|--2-2-2--2-2--2-2--2-2--2--||REPEAT X3
|--2-2-2--2-2--2-2--2-2--2--||
|--2-2-2--2-2--2-2--2-2--2--|/
pm . . .  . .  . .  . .  .
|-----------------------------------------------|
|-----------------------------------------------|
|-----------------------------------------------|
|--2-2-2--2-2--2-2--2-2----------7h9h10---------|
|--2-2-2--2-2--2-2--2-2--7h9h10----------5h7h9--|
|--2-2-2--2-2--2-2--2-2-------------------------|
pm . . .  . .  . .  . .
|----------------------------------------------------------------|
|----------------------------------------------------------------|
|----------------------------------------------------------------|
|------9-----9-------12------12---9p6h9p6h9p6h9—7p4h7p4h7p4h7p4--|
|----7-----7------10------10-------------------------------------|
|--9-----9-----10------10----------------------------------------|

|---------------------------------------P----|
|---------------------------------------A----|
|---------------------------------------U----|
|--2--4--5--7--9--2--4--5--7--9--10-9---S----|
|--2--4--5--7--9--2--4--5--7--9--10-9---E----|
|--2--4--5--7--9--2--4--5--7--9--10-9---!----|

|------------------------------------------------------|
|------------------------------------------------------|
|--9-9-9-9----11-11-11-11----9-9-9-9---11-11-11--12\7--|
|--x-x-x-x-----x--x--x--x----x-x-x-x----x--x--x---x-x--|
|--7-7-7-7-----9--9--9--9----7-7-7-7----9--9--9--10\5--|
|------------------------------------------------------|

|-------------------------------|
|-------------------------------|
|--9-------------11-------------|
|--x--------------x-------------|
|--7--------------9-------------|
|-------------------------------|

|--------------------------------|\
|--------------------------------||
|----------------4-------2-------||
|--2--2-2-4-2-0-----0-2-----0-2--||
|--------------------------------||
|--------------------------------||
					    |REPEAT
|----------------------------|    |
|----------------------------|    /
|----------------5-4---------|   /
|--2--2-2-4-2-0------5-4--5--|  /
|----------------------------| /
|----------------------------|/

|-----------------------------------|\
|-----------------------------------||
|-------------------7-------4-------||
|--2--2-4-4/7--5-4-----4-5-----4-5--||
|-----------------------------------||
|-----------------------------------||
						 |REPEAT
|----------------------------------| |
|----------------------------------| |
|-------------------7/9-7-4--2--4--| |
|--2--2-4-4/7--5-4-----------------| |
|----------------------------------| /
|----------------------------------|/

|--------------------------------------------|
|--------------------------------------------|
|--------------------------------------------|
|--2--4--5--7--9--2--4--5--7--9--10--12---2--|
|--2--4--5--7--9--2--4--5--7--9--10--12---2--|
|--2--4--5--7--9--2--4--5--7--9--10--12---2--|

Guitar 2 (Left Speaker)
------------------------------------------------------
|---------------------------------------|\
|--7p0----8p0---------------------------| |
|---------------------------------------| |
|------5---------2--2-2-2--5-4---7-5-4--| |
|-------------7--2--2-2-2---------------| |
|----------------2--2-2-2------5--------| |
pm               .  . . .                 |REPEAT
|---------------------------------------| |
|--7p0----8p0---------------------------| |
|----------------5--5-5-5---------------| |
|------5---------5--5-5-5--4-5----------| |
|-------------7--3--3-3-3----------5/7--| |
|-------------------------0-----5-------|/
pm               .  . . .

|-------------------------------------|\
|--7p0----8p0-------------------------| \
|-------------------------------------|  \
|------5---------2-2--2--5-4---7-5-4--|   \
|-------------7--2-2--2---------------|    \
|----------------2-2--2------5--------|     \
                                             |REPEAT X4
|------------------------------------------| |
|--7p0----8p0------------------------------| |
|-----------------5-5--4-------------------| |
|------5----------5-5--4-----4--5----------| |
|-------------7---3-3--2--------------5/7--| |
|-------------------------0-------5--------|/

|--0--|
|--0--|
|--0--|
|--0--|
|-----|
|-----|

|--0----------------------------|
|--0----------------------------|
|--0----------------------------|
|--0--------------5------4------|
|--0--------------5------4------|
|-----------------5------4------|

|--------------------------------|
|--------------------------------|
|------------------------7-------|
|----2---5---4-----7br-----4b5r--|
|----------------5-----5---------|
|--0---0---0---0-----------------|
pm .   .   .   .
|---------------------------------|
|---------------------------------|
|---------------------------------|
|----2---5---4---------------5-4--|
|----------------5--7-5---5-------|
|--0---0---0---0--------5---------|
pm .   .   .   .    . . . .  . . 
|--------------------------------|
|--------------------------------|
|------------------------7-------|
|----2---5---4-----7br-----4b5r--|
|----------------5-----5---------|
|--0---0---0---0-----------------|
pm .   .   .   .
|---------------------------------------------|
|---------------------------------------------|
|---------------------------------------------|
|----2---5---4---------------5-4--------------|
|----------------5--7-5---5------5-5-5-5-5-5--|
|--0---0---0---0--------5---------------------|
pm .   .   .   .    . . . .  . .
|-----------------------------------|\
|-----------------------------------||
|--5-5-5-5-5-5-5-5-5-5-5-5-5-5-5-5--||REPEAT
|--5-5-5-5-5-5-5-5-5-5-5-5-5-5-5-5--||
|--3-3-3-3-3-3-3-3-3-3-3-3-3-3-3-3--||
|-----------------------------------|/

|-------------0----------|
|-------------0----------|
|-------------7----------|
|--2-2-2-2-2--7--2--4br--|
|--2-2-2-2-2-----2-------|
|--2-2-2-2-2-----2-------|

|-------------0---7------10---------|
|-------------0---------------------|
|-------------7-----7h9--------7/9--|
|--2-2-2-2-2--7-------------9-------|
|--2-2-2-2-2------------------------|
|--2-2-2-2-2------------------------|

|-----------------------------------|
|-----------------------------------|
|--5-5-5-5-5-5-5-5-5-5-5-5-5-5-5-5--|
|--5-5-5-5-5-5-5-5-5-5-5-5-5-5-5-5--|
|--3-3-3-3-3-3-3-3-3-3-3-3-3-3-3-3--|
|-----------------------------------|

|-------------------------------------|
|-------------------------------------|
|--5-5-5-5-5-5-5-5-5--11111111111111--|
|--5-5-5-5-5-5-5-5-5---x-x-x-x-x-x-x--|
|--3-3-3-3-3-3-3-3-3---9-9-9-9-9-9-9--|
|-------------------------------------|

|-------------0---------|
|-------------0---------|
|-------------7---------|
|--2-2-2-2-2--7--2—4br--|
|--2-2-2-2-2-----2------|
|--2-2-2-2-2-----2------|

|-------------0---7------10---------|
|-------------0---------------------|
|-------------7-----7h9--------7/9--|
|--2-2-2-2-2--7-------------9-------|
|--2-2-2-2-2------------------------|
|--2-2-2-2-2------------------------|

|----------------------------------------------------------------|
|----------------------------------------------------------------|
|----------------------------------------------------------------|
|---9--9--9--9--9--9--9--9--7-7-7-7-7-7-7-7----------------------|
|--10-10-10-10-10-10-10-10--9-9-9-9-9-9-9-9---7h10p7h10--6h96h9--|
|----------------------------------------------------------------|

|----------------------------|
|----------------------------|
|----------------------------|
|--2-2-2-2-2-2-2-2-2-2--5\4--|
|--2-2-2-2-2-2-2-2-2-2-------|
|--2-2-2-2-2-2-2-2-2-2-------|

|------------------------------------------------|
|------------------------------------------------|
|------------------------------------------------|
|--5-5-5-5-5-5--4-4-4-4-4-4-4-4-4-4-4-4-4-4-4-4--|
|--7-7-7-7-7-7--5-5-5-5-5-5-5-5-5-5-5-5-5-5-5-5--|
|------------------------------------------------|

|-----------------------------------|
|-----------------------------------|
|--4-4-4-4-4-4-4-4-4-4-4-4-4-4-4-4--|
|--4-4-4-4-4-4-4-4-4-4-4-4-4-4-4-4--|
|--2-2-2-2-2-2-2-2-2-2-2-2-2-2-2-2--|
|-----------------------------------|

|--------------------2h3p0------------|
|---------------------------5p0--3/5--|
|--5-5-5-5-5-5-5-5--------------------|
|--5-5-5-5-5-5-5-5--------------------|
|--3-3-3-3-3-3-3-3--------------------|
|-------------------------------------|

|---------------------------------------------------|
|---------------------------------------------------|
|--12-12-12-12-12-12-12-12-12-12-12-12-12-12-12-12--|
|---x--x--x--x--x--x--x--x--x--x--x--x--x--x--x--x--|
|--10-10-10-10-10-10-10-10-10-10-10-10-10-10-10-10--|
|---------------------------------------------------|

|---------------------------------------------------|
|---------------------------------------------------|
|--11-11-11-11-11-11-11-11-11-11-11-11-11-11-11-11--|
|---x--x--x--x--x--x--x--x--x--x--x--x--x--x--x--x--|
|---9--9--9--9--9--9--9--9--9--9--9--9--9--9--9--9--|
|---------------------------------------------------|

|-----------------------------------|
|-----------------------------------|
|--7-7-7-7-7-7-7-7-7-7-7-7-7-7-7-7--|
|--x-x-x-x-x-x-x-x-x-x-x-x-x-x-x-x--|
|--5-5-5-5-5-5-5-5-5-5-5-5-5-5-5-5--|
|-----------------------------------|

|--------------------7-----------------7-----------------|
|---------------------------10----------------10---------|
|--9-9-9-9-9-9-9-9-----7/9--------7/9----7/9--------7/9--|
|--x-x-x-x-x-x-x-x--------------9-----------------9------|
|--7-7-7-7-7-7-7-7---------------------------------------|
|--------------------------------------------------------|

|--------------------------------------------|\
|--------------------------------------------| \
|--------------------------------------------|  \
|--2-2-2-2-2--2-2--2-2-2--2-2-2-2-2--2-2--2--|   \
|--2-2-2-2-2--2-2--2-2-2--2-2-2-2-2--2-2--2--|    \
|--2-2-2-2-2--2-2--2-2-2--2-2-2-2-2--2-2--2--|     \
pm . . . . .  . .  . . .  . . . . .  . .  .         \
|--------------------------------------------------||
|--------------------------------------------------||
|--------------------5^----------------------------||
|--2-2-2--2-2-2-2-2--5^2-2--2-2--2-2-2--2-2-2-2-2--||REPEAT
|--2-2-2--2-2-2-2-2----2-2--2-2--2-2-2--2-2-2-2-2--||
|--2-2-2--2-2-2-2-2----2-2--2-2--2-2-2--2-2-2-2-2--||
pm . . .  . . . . .    . .  . .  . . .  . . . . .  /
                                                  /
|---------------------------------------|       /
|---------------------------------------|      /
|-----5-5-5-5-5-5-5-5--4-4-4-4-4-4-4-4--|    /
|--x--5-5-5-5-5-5-5-5--4-4-4-4-4-4-4-4--|   /
|--x--3-3-3-3-3-3-3-3--2-2-2-2-2-2-2-2--| /
|--x------------------------------------|/

|---------|
|---------|
|---------|
|---------|
|--GTR 1--|
|---------|

|----------------------------------------------|
|----------------------------------------------|
|------------0-0-0-0---------------------------|
|--2--2-2-2--2-2-2-2--2-2--2-4---5p4p2--5p4p2--|
|--2--2-2-2-----------2-2--2-4-----------------|
|--2--2-2-2-----------2-2--2-4-----------------|
pm    . . .           . .  . .
|----------------------------------------------------------|
|----------------------------------------------------------|
|------------0-0-0-0---------------------------------------|
|--2--2-2-2--2-2-2-2--2-2--2-4---5p4p2--5p4p2-/4-----------|
|--2--2-2-2-----------2-2--2-4-------------------5-7-------|
|--2--2-2-2-----------2-2--2-4------------------------4-5--|
pm    . . .           . .  . .
|----------------------------------------------|
|----------------------------------------------|
|------------0-0-0-0---------------------------|
|--2--2-2-2--2-2-2-2--2-2--2-4---5p4p2--5p4p2--|
|--2--2-2-2-----------2-2--2-4-----------------|
|--2--2-2-2-----------2-2--2-4-----------------|
pm    . . .           . .  . .
|----------------------------------------------------------|
|----------------------------------------------------------|
|------------0-0-0-0---------------------------------------|
|--2--2-2-2--2-2-2-2--2-2--2-4---5p4p2--5p4p2-/4-----------|
|--2--2-2-2-----------2-2--2-4-------------------5-7-------|
|--2--2-2-2-----------2-2--2-4------------------------4-5--|
pm    . . .           . .  . .
|----------------|
|----------------|
|----------------|
|--2--4--5--7/9--|
|--2--4--5--7/9--|
|--2--4--5--7/9--|

|-----------------------------------|\\
|-----------------------------------|| |
|--5-5-5-5-5-5-5-5-5-5-5-5-5-5-5-5--|| |
|--5-5-5-5-5-5-5-5-5-5-5-5-5-5-5-5--||REPEAT
|--3-3-3-3-3-3-3-3-3-3-3-3-3-3-3-3--|| |
|-----------------------------------|/ |
						   |
|-----------------------------------|  |
|-----------------------------------|  |
|-----------------------------------|  |
|--2-2-2-2-2-2-2-2-2-2-2-2-2-2-2-2--|  |REPEAT
|--2-2-2-2-2-2-2-2-2-2-2-2-2-2-2-2--|  |
|--2-2-2-2-2-2-2-2-2-2-2-2-2-2-2-2--|  |
						   |
|--------------------7----------------||
|---------------------------10--------||
|----------------------7/9-------7/9--||
|--2-2-2-2-2-2-2-2-------------9------||
|--2-2-2-2-2-2-2-2--------------------||
|--2-2-2-2-2-2-2-2--------------------|/

|-----------------------------------|\
|-----------------------------------||
|--5-5-5-5-5-5-5-5-5-5-5-5-5-5-5-5--||
|--5-5-5-5-5-5-5-5-5-5-5-5-5-5-5-5--||REPEAT
|--3-3-3-3-3-3-3-3-3-3-3-3-3-3-3-3--||
|-----------------------------------|/

|---------------------------|\
|---------------------------||
|---------------------------||
|--2-2-2--2-2--2-2--2-2--2--||REPEAT X3
|--2-2-2--2-2--2-2--2-2--2--||
|--2-2-2--2-2--2-2--2-2--2--|/
pm . . .  . .  . .  . .  .
|-----------------------------------------------|
|-----------------------------------------------|
|--2-2-2--2-2--2-2--2-2----------7h9h10---------|
|--2-2-2--2-2--2-2--2-2--7h9h10----------5h7h9--|
|--2-2-2--2-2--2-2--2-2-------------------------|
pm . . .  . .  . .  . .
|----------------------------------------------------------------|
|----------------------------------------------------------------|
|----------------------------------------------------------------|
|---9--9--9--9--9--9--9--9--7-7-7-7-7-7-7-7----------------------|
|--10-10-10-10-10-10-10-10--9-9-9-9-9-9-9-9---7h10p7h10--6h96h9--|
|----------------------------------------------------------------|

|---------------------------------------P----|
|---------------------------------------A----|
|---------------------------------------U----|
|--2--4--5--7--9--2--4--5--7--9--10-9---S----|
|--2--4--5--7--9--2--4--5--7--9--10-9---E----|
|--2--4--5--7--9--2--4--5--7--9--10-9---!----|

|--------------------------------------------|
|--------------------------------------------|
|--5-5-5-5----5-5-5-5----5-5-5-5----5-5-5-5--|
|--5-5-5-5----5-5-5-5----5-5-5-5----5-5-5-5--|
|--3-3-3-3----3-3-3-3----3-3-3-3----3-3-3-3--|
|--------------------------------------------|

|--0-----------------------------|
|--0-----------------------------|
|--0-----------------------------|
|--2-----------------------------|
|--2-------------5\--------------|
|--2-----------------------------|

|-----------------------------------|\
|-----------------------------------||
|-------------------7-------4-------||
|--2--2-4-4/7--5-4-----4-5-----4-5--||
|-----------------------------------||
|-----------------------------------||
						 |REPEAT
|----------------------------------| |
|----------------------------------| |
|-------------------7/9-7-4--2--4--| |
|--2--2-4-4/7--5-4-----------------| |
|----------------------------------| /
|----------------------------------|/

|-------------------------------------|\
|-------------------------------------||
|----------------------5-5-5----------||
|--2--2-2-2-2--2-2-2---5-5-5---5-5-5--||
|--2--2-2-2-2--2-2-2---3-3-3---5-5-5--||
|--2--2-2-2-2--2-2-2-----------5-5-5--||
pm    . . . .                          |REPEAT
|-------------------------------------||
|-------------------------------------||
|-------------------------------------||
|--2--2-2-2-0-2-4-2-0--5-5-5---7-7-7--||
|--2--2-2-2------------5-5-5---7-7-7--||
|--2--2-2-2------------5-5-5---7-7-7--|/
pm    . . .
|----------------------------------------------------|
|----------------------------------------------------|
|--9-11--12--14--16---9-11--12--14--16--17---19---9--|
|--x--x---x---x---x---x--x---x---x---x---x----x---x--|
|--7--9--10--12--14---7--9--10--12--14--15---17---7--|
|----------------------------------------------------|
Добавлено: 03.03.2012
Другие материалы по этой песне:
  • Аккорды и текст

Страница создана 03.03.2012
http://primanota.ru/our-last-night/the-messenger-chords.htm
Привет, Гость.
Предлагаем пройти революционный курс по гитаре.
Подарок от PrimaNota.Ru, забирай!