PrimaNota.ru - самый крупный в мире бесплатный архив песенных текстов, аккордов, табулатур и нот


Our Last Night - Blank Space - аккорды и текст, видео

Регистрация Запомнить меня
Войти через:  Facebook Google Twitter Vk Yandex Mail.ru

Our Last Night - Blank Space - аккорды и текст, видео

Печатать
Просмотров: 658
Blank Space
Our Last Night
Hi, this is my first tab and I know it's not complete and not 100% correct but you can 
work with it, develop it further or just have fun with it...

Best regards and enjoy it... A. D.



Our Last Night - Blank Space (Taylor Swift Cover)

Standard Tuning



Verse 1:
Guitar 1 (clean):
e-7-7-7-----------4-4-4-----------
B-------5-5-5-5-5-------5-5-5-5-5- 
G---------------------------------  x5 (or you just play the first note and let it ring 
D---------------------------------      with a bit of delay or tremolo)
A---------------------------------
E---------------------------------

Nice to meet you, where you been?
I could show you incredible things
Magic, madness, heaven, sin
Saw you there and 
I thought oh my god Look at that face, 
you look like my next mistake
Love's a game, wanna play


Verse 2:
Guitar 1 (clean):
e-7-7-7-----------4-4-4-----------
B-------5-5-5-5-5-------5-5-5-5-5- 
G---------------------------------  x4
D---------------------------------
A---------------------------------
E---------------------------------

Guitar 2 (clean):
  E5    A5    B5   
e------------------
B------------------
G-9-----6----------  (strum it once and let it ring)
D-9-----7-----5----
A-7-----7-----5----
E-------------7----

E5 
New money, suit and tie
I can read you like a magazine
A5
Ain't it funny rumors fly
And I know you heard about me
B5
So hey, let's be friends
I'm dying to see how this one ends
E5
Grab your passport and my hand
I could make the bad girls good for a weekend


Pre-Chorus:
Guitar 1 (clean):
 (E)   (A)   (B)   (E)
e-7-----0-----4-----5-
B-5-----5-----5-----5-
G---------------------  (strum it once and let it ring)
D---------------------
A---------------------
E---------------------

Guitar 2 (clean):
  E      A      B      
e-7------0------2-----
B-7------5------4-----
G-9------6------4-----
D-9------7------4-----  (strum it once and let it ring)
A-7------7------2-----
E-x------x------x-----

E
So it's gonna be forever
Or it's gonna go down in flames
A
You can tell me when it's over
If the high was worth the pain
B
Got a long list of ex-lovers
They'll tell you I'm insane
E
Cause you know I love the players
And you love the game


Chorus:
Guitar 1 (clean):
 (E)                             (A)
e-7-7-7-7-7-7-7-7-7-7-7-7-7-7-7-7-0-0-0-0-0-0-0-0-0-0-0-0-0-0-0-0-
B-5-5-5-5-5-5-5-5-5-5-5-5-5-5-5-5-5-5-5-5-5-5-5-5-5-5-5-5-5-5-5-5-
G-----------------------------------------------------------------
D-----------------------------------------------------------------
A-----------------------------------------------------------------
E-----------------------------------------------------------------

 (B)                             (E)
e-4-4-4-4-4-4-4-4-4-4-4-4-4-4-4-4-5-5-5-5-5-5-5-5-5-5-5-5-5-5-5-5-
B-5-5-5-5-5-5-5-5-5-5-5-5-5-5-5-5-5-5-5-5-5-5-5-5-5-5-5-5-5-5-5-5-
G-----------------------------------------------------------------
D-----------------------------------------------------------------
A-----------------------------------------------------------------
E-----------------------------------------------------------------

Guitar 2 (clean):
  E      A      B      
e-7------0------2------
B-7------5------4------
G-9------6------4------
D-9------7------4------
A-7------7------2------
E-x------x------x------

E
Cause we're young and we're reckless
We'll take this way too far
A 
It'll leave you breathless
Or with a nasty scar
B
Got a long list of ex-lovers
They'll tell you I'm insane
E
But I got a blank space baby
And I'll write your name


Drum-Break


Verse 3:
Guitar 1 (distortion):
 (E)                             (A)
e-7-7-7-7-7-7-7-7-7-7-7-7-7-7-7-7-0-0-0-0-0-0-0-0-0-0-0-0-0-0-0-0-
B-5-5-5-5-5-5-5-5-5-5-5-5-5-5-5-5-5-5-5-5-5-5-5-5-5-5-5-5-5-5-5-5-
G-----------------------------------------------------------------
D-----------------------------------------------------------------
A-----------------------------------------------------------------
E-----------------------------------------------------------------

 (B)                             (E)
e-4-4-4-4-4-4-4-4-4-4-4-4-4-4-4-4-5-5-5-5-5-5-5-5-5-5-5-5-5-5-5-5-
B-5-5-5-5-5-5-5-5-5-5-5-5-5-5-5-5-5-5-5-5-5-5-5-5-5-5-5-5-5-5-5-5-
G-----------------------------------------------------------------
D-----------------------------------------------------------------
A-----------------------------------------------------------------
E-----------------------------------------------------------------

Guitar 2 (clean):
  E      A      B      
e-7------0------2------
B-7------5------4------
G-9------6------4------ (strum it once and let it ring)
D-9------7------4------
A-7------7------2------
E-x------x------x------

E
Cherry lips, Crystal skies
I could show you incredible things
A
Stolen kisses, pretty lies
You're the queen baby I'm your king
B
Find out what you want
Be that guy for a month
E
But the worst is yet to come
...Oh no...

Verse 4:
Guitar 1 (distortion)
 (E)                             (A)
e-7-7-7-7-7-7-7-7-7-7-7-7-7-7-7-7-0-0-0-0-0-0-0-0-0-0-0-0-0-0-0-0-
B-5-5-5-5-5-5-5-5-5-5-5-5-5-5-5-5-5-5-5-5-5-5-5-5-5-5-5-5-5-5-5-5-
G-----------------------------------------------------------------
D-----------------------------------------------------------------
A-----------------------------------------------------------------
E-----------------------------------------------------------------

 (B)                             (E)
e-4-4-4-4-4-4-4-4-4-4-4-4-4-4-4-4-5-5-5-5-5-5-5-5-5-5-5-5-5-5-5-5-
B-5-5-5-5-5-5-5-5-5-5-5-5-5-5-5-5-5-5-5-5-5-5-5-5-5-5-5-5-5-5-5-5-
G-----------------------------------------------------------------
D-----------------------------------------------------------------
A-----------------------------------------------------------------
E-----------------------------------------------------------------

Guitar 2 (clean):
  E      A      B      
e-7------0------2------
B-7------5------4------
G-9------6------4------ (strum it once and let it ring)
D-9------7------4------
A-7------7------2------
E-x------x------x------

E
Screaming, crying, perfect storms
I could make all the tables turn
A
Rose garden filled with thorns
Keep you second guessing like 
B
oh my god, who is he? 
I get drunk on jealousy
E
But you'll come back each time you leave
Cause darling I'm a nightmare dressed like a daydream


Pre-Chorus:
Guitar 1 (distortion):
 (E)                             (A)
e-7-7-7-7-7-7-7-7-7-7-7-7-7-7-7-7-0-0-0-0-0-0-0-0-0-0-0-0-0-0-0-0-
B-5-5-5-5-5-5-5-5-5-5-5-5-5-5-5-5-5-5-5-5-5-5-5-5-5-5-5-5-5-5-5-5-
G-----------------------------------------------------------------
D-----------------------------------------------------------------
A-----------------------------------------------------------------
E-----------------------------------------------------------------

 (B)                             (E)
e-4-4-4-4-4-4-4-4-4-4-4-4-4-4-4-4-5-5-5-5-5-5-5-5-5-5-5-5-5-5-5-5-
B-5-5-5-5-5-5-5-5-5-5-5-5-5-5-5-5-5-5-5-5-5-5-5-5-5-5-5-5-5-5-5-5-
G-----------------------------------------------------------------
D-----------------------------------------------------------------
A-----------------------------------------------------------------
E-----------------------------------------------------------------

Guitar 2 (distortion):
  E      A      B      
e-7------0------2------
B-7------5------4------
G-9------6------4------
D-9------7------4------
A-7------7------2------
E-x------x------x------

E
So it's gonna be forever
Or it's gonna go down in flames
A
You can tell me when it's over
If the high was worth the pain
B
Got a long list of ex-lovers
They'll tell you I'm insane
E
Cause you know I love the players
And you love the game

Chorus:
Guitar 1 (distortion):
 (E)                             (A)
e-7-7-7-7-7-7-7-7-7-7-7-7-7-7-7-7-0-0-0-0-0-0-0-0-0-0-0-0-0-0-0-0-
B-5-5-5-5-5-5-5-5-5-5-5-5-5-5-5-5-5-5-5-5-5-5-5-5-5-5-5-5-5-5-5-5-
G-----------------------------------------------------------------
D-----------------------------------------------------------------
A-----------------------------------------------------------------
E-----------------------------------------------------------------

 (B)                             (E)
e-4-4-4-4-4-4-4-4-4-4-4-4-4-4-4-4-5-5-5-5-5-5-5-5-5-5-5-5-5-5-5-5-
B-5-5-5-5-5-5-5-5-5-5-5-5-5-5-5-5-5-5-5-5-5-5-5-5-5-5-5-5-5-5-5-5-
G-----------------------------------------------------------------
D-----------------------------------------------------------------
A-----------------------------------------------------------------
E-----------------------------------------------------------------

Guitar 2 (distortion):
  E      A      B      
e-7------0------2------
B-7------5------4------
G-9------6------4------
D-9------7------4------
A-7------7------2------
E-x------x------x------

E
Cause we're young and we're reckless
We'll take this way too far 
A
and leave you breathless
Or with a nasty scar
B
Got a long list of ex-lovers
They'll tell you I'm insane
E
But I got a blank space baby
And I'll write your name


Bridge:
Guitar 1 (distortion):
e-0-0-0-0-0-0-0-0-0-0-0-0-0-0-0-0-0-
B-5-5-5-5-5-5-5-5-5-5-5-5-5-5-5-5-5-
G-4-4-4-4-4-4-4-4-4-4-4-4-4-4-4-4-4-
D-----------------------------------
A-----------------------------------
E-----------------------------------

Guitar 2 (distortion):
  E      A  
e-7------0-
B-7------5-
G-9------6-
D-9------7-
A-7------7-
E-x------x-

                                     E  A
Girls only want love if it's torture
                                         E  A
Don't say I didn't say I didn't warn you
                                     E  A 
Girls only want love if it's torture
                                         E  A
Don't say I didn't say I didn't warn you


Pre-Chorus:
Guitar 1 (distortion):
 (E)                             (A)
e-7-7-7-7-7-7-7-7-7-7-7-7-7-7-7-7-0-0-0-0-0-0-0-0-0-0-0-0-0-0-0-0-
B-5-5-5-5-5-5-5-5-5-5-5-5-5-5-5-5-5-5-5-5-5-5-5-5-5-5-5-5-5-5-5-5-
G-----------------------------------------------------------------
D-----------------------------------------------------------------
A-----------------------------------------------------------------
E-----------------------------------------------------------------

 (B)                             (E)
e-4-4-4-4-4-4-4-4-4-4-4-4-4-4-4-4-5-5-5-5-5-5-5-5-5-5-5-5-5-5-5-5-
B-5-5-5-5-5-5-5-5-5-5-5-5-5-5-5-5-5-5-5-5-5-5-5-5-5-5-5-5-5-5-5-5-
G-----------------------------------------------------------------
D-----------------------------------------------------------------
A-----------------------------------------------------------------
E-----------------------------------------------------------------

Guitar 2 (distortion):
  E      A      B      
e-7------0------2------
B-7------5------4------
G-9------6------4------
D-9------7------4------
A-7------7------2------
E-x------x------x------

E
So it's gonna be forever
Or it's gonna go down in flames
A
You can tell me when it's over
If the high was worth the pain
B
Got a long list of ex-lovers
They'll tell you I'm insane
E
Cause you know I love the players
And you love the game

Chorus (distortion):
 (E)                             (A)
e-7-7-7-7-7-7-7-7-7-7-7-7-7-7-7-7-0-0-0-0-0-0-0-0-0-0-0-0-0-0-0-0-
B-5-5-5-5-5-5-5-5-5-5-5-5-5-5-5-5-5-5-5-5-5-5-5-5-5-5-5-5-5-5-5-5-
G-----------------------------------------------------------------
D-----------------------------------------------------------------
A-----------------------------------------------------------------
E-----------------------------------------------------------------

 (B)                             (F)
e-4-4-4-4-4-4-4-4-4-4-4-4-4-4-4-4-5-5-5-5-5-5-5-5-5-5-5-5-5-5-5-5-
B-5-5-5-5-5-5-5-5-5-5-5-5-5-5-5-5-5-5-5-5-5-5-5-5-5-5-5-5-5-5-5-5-
G-----------------------------------------------------------------
D-----------------------------------------------------------------
A-----------------------------------------------------------------
E-----------------------------------------------------------------

Guitar 2 (distortion):
  E      A      B      
e-7------0------2------
B-7------5------4------
G-9------6------4------
D-9------7------4------
A-7------7------2------
E-x------x------x------

E
Cause we're young and we're reckless
We'll take this way too far 
A
and leave you breathless
Or with a nasty scar
B
Got a long list of ex-lovers
They'll tell you I'm insane
E
But I got a blank space baby
And I'll write your name
Добавлено: 22.11.2015
Другие материалы по этой песне:
  • Аккорды и текст

Страница создана 22.11.2015
http://primanota.ru/our-last-night/blank-space-chords.htm
Привет, Гость.
Предлагаем пройти революционный курс по гитаре.
Подарок от PrimaNota.Ru, забирай!