PrimaNota.ru - самый крупный в мире бесплатный архив песенных текстов, аккордов, табулатур и нот


Our Lady Peace - Under Zenith - аккорды и текст, таба, видео

Регистрация Запомнить меня
Войти через:  Facebook Google Twitter Vk Yandex Mail.ru

Our Lady Peace - Under Zenith - аккорды и текст, таба, видео

Печатать
Просмотров: 103
Under Zenith
Our Lady Peace
		   Tune 1/2 steps down.

1 - eb
2 - Bb
3 - Gb
4 - Db
5 - Ab
6 - Eb

Bass 1:

Gb-|----------------------------------------------------------------|
Db-|-----2---4----------2---4-5-7-4------2---4----------2---4-5-4---|
Ab-|---2---2---5--5---2---2------------2---2---5--5---2---2-------5-|
Eb-|-0--------------0----------------0--------------0---------------|

fig 1:

eb-|------------------------------------------------------------------|
Bb-|-12---12-12-12/-13-/-17------12---12-12-12/-13-\-17-\-15-\-13-----|
Gb-|------------------------------------------------------------------|
Db-|-9----9--9--9-/-10-/-14------9----9--9--9-/-10-\-14-\-12-\-10-----|
Ab-|------------------------------------------------------------------|
Eb-|------------------------------------------------------------------|


fig 2:

eb-|----------------------------------------------------------------|
Bb-|-12---12-12-12/-13-/-17----------12---12-12-12/-13-\-10---------|
Gb-|----------------------------------------------------------------|
Db-|-9----9--9--9-/-10-/-14----------9----9--9--9-/-10-\-7----------|
Ab-|----------------------------------------------------------------|
Eb-|----------------------------------------------------------------|

fill 1:

eb-|-x-x-x-|
Bb-|-x-x-x-|
Gb-|-x-x-x-|
Db-|-x-x-x-|
Ab-|-x-x-x-|
Eb-|-x-x-x-|

fig 3:

eb-|-14-|-15-|
Bb-|-12-|-13-|
Gb-|-11-|-12-|
Db-|----|----|
Ab-|----|----|
Eb-|----|----|

fig 4:

eb-|-----------------------------------------|
Bb-|-----------------------------------------|
Gb-|-----------------------------------------|
Db-|-2---------x-x-x-2---------3-3-3-3-3-3-3-|
Ab-|-2---------x-x-x-2---------3-3-3-3-3-3-3-|
Eb-|-0---------x-x-x-0---------1-1-1-1-1-1-1-|

fig 5:

eb-|---|---|---|
Bb-|---|---|---|
Gb-|-5-|-2-|---|
Db-|-5-|-2-|-2-|
Ab-|-3-|-0-|-2-|
Eb-|---|---|-0-|

fig 6: (not sure about this one)

eb-|--------------------------------------------|
Bb-|--------------------------------------------|
Gb-|-12-12-12-12-12-\-7-7-7-/-9-9-9-9-9-\-7-7-7-|
Db-|-9--9--9--9--9--\-5-5-5-/-7-7-7-7-7-\-5-5-5-|
Ab-|--------------------------------------------|
Eb-|--------------------------------------------|

fig 7:

eb-|-10-10-10-12-10-\-7-7-7-/-9--9--9--9--9--\-7-7-7-|
Bb-|-12-12-12-12-12-\-8-8-8-/-10-10-10-10-10-\-8-8-8-|
Gb-|-------------------------------------------------|
Db-|-------------------------------------------------|
Ab-|-------------------------------------------------|
Eb-|-------------------------------------------------|

fig 8:

eb-|-15-15-15-15-15-\-10-10-10-/-12-12-12-12-12-\-10-10-10-|
Bb-|-12-12-12-12-12-\-8--8--8--/-10-10-10-10-10-\-8--8--8--|
Gb-|-12-12-12-12-12-\-7--7--7--/-9--9--9--9--9--\-7--7--7--|
Db-|-------------------------------------------------------|
Ab-|-------------------------------------------------------|
Eb-|-------------------------------------------------------|


fig 9:

eb-|---|
Bb-|---|
Gb-|-5-|
Db-|-5-|
Ab-|-3-|
Eb-|---|


Now, putting it all together:

bass 1 + fig 1
bass 1 + fig 2

Verse 1:

bass 1 + fig 1 - maybe they'll come back again.. maybe they're all gone.
bass 1 + fig 2 - one day you'll find me sending their message strong.
fill 1

Chorus:

fig 3 - under your feet the city falls
fig 3 - down so far the ground is sky
fig 3 - we're under zenith again,
fig 3 - it's healthy if not for long.

fig 4 x2
fig 5 - Leave a little room, for us to breathe

Verse 2:

bass 1 + fig 1 - much more than seven days and you've slipt to deep
bass 1 + fig 2 - much stronger than simpathy, let your best friend
                 pull back that leash
fill 1

Chorus:

fig 3 - sitting by a frozen man
fig 3 - someone somewhere has to cry
fig 3 - we're under zenith again
fig 3 - let that cycle run we won't die.

fig 4 x2
fig 5 - Leave a little room, for us to breathe

Bridge:

fig 6 x 2
fig 7 x 2

fig 8 - I love, I love how you let me fall.
fig 8 - under, under not too far.
fig 8 - I love, I love how you let me fall.
fig 8 - Only now I see where we are.

fig 8 - Hold Me
fig 8 - Hold Me
fig 8 - Hold Me
fig 8 - Hold Me

fig 9 - Leave a little room, for us to breathe     
Добавлено: 06.10.2013
Другие материалы по этой песне:

Страница создана 29.03.2012
http://primanota.ru/our-lady-peace/under-zenith-chords.htm
Привет, Гость.
Предлагаем пройти революционный курс по гитаре.
Подарок от PrimaNota.Ru, забирай!