PrimaNota.ru - самый крупный в мире бесплатный архив песенных текстов, аккордов, табулатур и нот


Our Lady Peace - Supersatellite - аккорды и текст, таба, бас-таба, видео

Регистрация Запомнить меня
Войти через:  Facebook Google Twitter Vk Yandex Mail.ru

Our Lady Peace - Supersatellite - аккорды и текст, таба, бас-таба, видео

Печатать
Просмотров: 128
Supersatellite
Our Lady Peace
		   This song is tuned 1/2 step down.
Intro:

----------------------------------------------------------------------------------------------------------------
--------------------------------------------------------------------------------------------------8---8-8--8--
------X-X------9-----7-----------X-X-------9----7-------------X-X--------9----7--------- 6---6-7--6--
------X-X------9-----7-----------X-X-------9----7-------------X-X--------9----7----------------------
------X-X------9-----7-----------X-X-------9----7-------------X-X--------9----7----------------------
0----------------------------0-------------------------------0------------------------------------------------

The verse has a lead guitar in the backround he is playing:

-----------------------------------------------------------
-----------------------------------------------------------
9---7--------------------------------------9---7-----------
----------7---6---------------6--7--6---------------7---6--
-----------------------------------------------------------

The verse is:
E5	A	G
Ive read the bible,	Ive read dylan
E5	A	G
Im reading people now, because its much more chilling
Bridge:
E5	A5	E5	A5	E5	A5
And I sit,  sit on a satellite  with stars made of gold Thers life through this hollow lens
E5	A5
and I know	know	know	yeah	yeah
Chorus:
E5	F	E5	A5	F
Super..................................satellite	Super.........................satellite
A5  G5  A5	G5	A5	G5	A5	G5	A5	G5	A5	G5	A5	(and on and on)
nothing dazzles me, I am in his dreams,  nothing is shocking,  transparent human being

CHORDS:
E5---022xxx
A---577655
A5--x022xx
G---355433
G5--xx00xx
F---133211
2nd verse:

I watch the traffic, I find the seeds, theres one man imperticular whos not what he seems,
I cant focus on the lies in his head,  hes convinced his blood is blue,  but its red, red, red yeah     
Добавлено: 24.11.2013
Другие материалы по этой песне:
  • Аккорды и текст

Страница создана 05.05.2012
http://primanota.ru/our-lady-peace/supersatellite-chords.htm
Привет, Гость.
Предлагаем пройти революционный курс по гитаре.
Подарок от PrimaNota.Ru, забирай!