PrimaNota.ru - самый крупный в мире бесплатный архив песенных текстов, аккордов, табулатур и нот


Our Lady Peace - Made Of Steel - аккорды и текст, таба, драм-таба, видео

Регистрация Запомнить меня
Войти через:  Facebook Google Twitter Vk Yandex Mail.ru

Our Lady Peace - Made Of Steel - аккорды и текст, таба, драм-таба, видео

Печатать
Просмотров: 171
Made Of Steel
Our Lady Peace
		   Our Lady Peace
Made of Steel
Tabbed by: Andy Picker
Presented by: http://ourladypeace.cc
Tuning: Down a half step

Guitar 1 intro

E|-----------------------------------------|
B|-----------------------------------------|
G|--3/13v-12-13-10v-12-13-7v-12-13-6v-13v--|
D|-----------------------------------------|
A|-----------------------------------------|
E|-----------------------------------------|

Guitar 2 intro

E|------------------------------------------|
B|------------------------------------------|
G|--3/13v-12-13-10v-12-13-17v-14-15-13v-16v-|
D|------------------------------------------|
A|------------------------------------------|
E|------------------------------------------|

Distorted Guitar in background

E|-----------|
B|-----------|
G|----8---6--|
D|--6-8-8-6--|
A|--6-6-8-4--|
E|--4---6----|

Guitar 1 verse
Clean tone, strum

E|-----------|
B|-----------|
G|----8---6--|
D|--6-8-8-6--|
A|--6-6-8-4--|
E|--4---6----|

Chorus
Distortion

E|-----------|
B|-----------|
G|----8---6--|
D|--6-8-8-6--|
A|--6-6-8-4--|
E|--4---6----|






“you wanted a hero tonight..”

E|-----------|
B|-----------|
G|-----------|
D|--6-5-3-2--|
A|--6-5-3-2--|
E|--4-3-1-0--|


“But I'm not made of steel..”

E|-----------------------------|
B|-----------------------------|
G|------6-------5-------5---5--|
D|----6---6---6---6---6---6----|
A|--4-------3------------------|
E|------------------6----------|


Bridge

Lightly palm muted clean tone

E|-----------|
B|-----------|
G|----8---6--|
D|--6-8-8-6--|
A|--6-6-8-4--|
E|--4---6----|

distortion

E|--------------------|
B|--------------------|
G|-3/13-12-13-10-17v--|
D|--------------------|
A|--------------------|
E|--------------------|

Solo

E|-------------------------|
B|-------------------------|
G|--------20----20----20\--|
D|--12/18----18----18------| 2x
A|-------------------------|
E|-------------------------|

3rd time

E|-------------------------|
B|-------------------------|
G|--------21----21----21\--|
D|--12/18----18----18------|
A|-------------------------|
E|-------------------------|


Continued
# of times each is picked is not shown

E|----------------------------------------------------|
B|----------------------------------------------------|
G|----18-20-20-20p18-18-18-14-14-14-11-11-8-8-6-6-4-2-|
D|-18-------------------------------------------------|
A|----------------------------------------------------|
E|----------------------------------------------------|

End

E|---------|
B|---------|
G|---------|
D|--6-5-3--|
A|--6-5-3--|
E|--4-3-1--|     
Добавлено: 20.09.2013
Другие материалы по этой песне:
  • Аккорды и текст

Страница создана 06.04.2012
http://primanota.ru/our-lady-peace/made-of-steel-chords.htm
Привет, Гость.
Предлагаем пройти революционный курс по гитаре.
Подарок от PrimaNota.Ru, забирай!