PrimaNota.ru - самый крупный в мире бесплатный архив песенных текстов, аккордов, табулатур и нот


Our Lady Peace - Lying Awake - аккорды и текст, таба, бас-таба, видео

Регистрация Запомнить меня
Войти через:  Facebook Google Twitter Vk Yandex Mail.ru

Our Lady Peace - Lying Awake - аккорды и текст, таба, бас-таба, видео

Печатать
Просмотров: 133
Lying Awake
Our Lady Peace
		   transcripted by: Jason

tunning : Eb Ab Db Gb Bb Eb

/ = slide down
\ = slide up
[x]= bend till one semi tone higher
~ = wiggle and bend

Intro
Eb-|-18-19-16-------18-19-[22]---|
Bb-|-----------------------------|
Gb-|-----------------------------|
Db-|-----------------------------|
Ab-|-----------------------------|
Eb-|-----------------------------|
verse
Eb-|----------|
Bb-|----------|
Gb-|-----1----|whenever you hear loud booms......do first chords as many times
Db-|--2--2----|as booms......then when he starts singing hit second chord
Ab-|--2--2----|softly
Eb-|--0--0----|

Eb-|-----------|
Bb-|-----------|
Gb-|--7--4-----| x2
Db-|--7--4--4--|
Ab-|--4--2--4--|
Eb-|--------2--|

Eb-|----------|
Bb-|----------|
Gb-|-----1----|whenever you hea loud booms......do first chors as many times
Db-|--2--2----|as booms......then when he starts singing hit second chord
Ab-|--2--2----|softly
Eb-|--0--0----|
                       you can hear mike slide so do this:
Eb-|-----------|     |-------------------|
Bb-|-----------|     |--11-12/---11-12---|
Gb-|--7--4-----| x2  |--------4\---------|
Db-|--7--4--4--|     |-------------------|
Ab-|--4--2--4--|     |-------------------|
Eb-|--------2--|     |-------------------|
chorus
   |   2x   | 3rd time | 4th time|  over top chorus  | 4th time|
Eb-|--------|----------|---------|-------------------|---------|
Bb-|--------|----------|---------|-11-12/----11-12---|-12~~~~~-|
Gb-|----4---|---4------|---4-----|--------4\---------|---------|
Db-|--2-4-4-|-2-4-4\6--|-2-4-4---|-------------------|---------|
Ab-|--2-2-4-|-2-2-4\6--|-2-2-4---|-------------------|---------|
Eb-|--0---2-|-0---2\4--|-0---2---|-------------------|---------|

Eb-|----------|
Bb-|----------|
Gb-|-----1----|whenever you hea loud booms......do first chors as many times
Db-|--2--2----|as booms......then when he starts singing hit second chord
Ab-|--2--2----|softly
Eb-|--0--0----|

Eb-|-----------|     |-------------------|
Bb-|-----------|     |--11-12/---11-12---|
Gb-|--7--4-----| x2  |--------4\---------|
Db-|--7--4--4--|     |-------------------|
Ab-|--4--2--4--|     |-------------------|
Eb-|--------2--|     |-------------------|
chorus
   |   2x   | 3rd time | 4th time|  over top chorus  | 4th time|
Eb-|--------|----------|---------|-------------------|---------|
Bb-|--------|----------|---------|-11-12/----11-12---|-12~~~~~-|
Gb-|----4---|---4------|---4-----|--------4\---------|---------|
Db-|--2-4-4-|-2-4-4\6--|-2-4-4---|-------------------|---------|
Ab-|--2-2-4-|-2-2-4\6--|-2-2-4---|-------------------|---------|
Eb-|--0---2-|-0---2\4--|-0---2---|-------------------|---------|

solo
Eb-|------------------------------------------------------------------------
Bb-|--------11-12--11-12-12\17-17-17/12---11-12-12\17-17-17/12---11-12-12---
Gb-|-15~~~~-------9---------------------9----------------------9------------
Db-|------------------------------------------------------------------------
Ab-|------------------------------------------------------------------------
Eb-|------------------------------------------------------------------------
solo cont
Eb-|-----------------------------------------------------------|
Bb-|--------------------------------------------12\off the-----|
Gb-|-334466-9~~\11-12~~~~-11-9~12~~~11-9-12~~~~-12\guitar neck-|
Db-|-----------------------------------------------------------|
Ab-|-----------------------------------------------------------|
Eb-|-----------------------------------------------------------|

Eb-|-------------------|
Bb-|--11-12/---11-12---|
Gb-|--------4\---------|
Db-|-------------------|
Ab-|-------------------|
Eb-|-------------------|

chorus
   |   2x   | 3rd time | 4th time|  over top chorus  | 4th time|
Eb-|--------|----------|---------|-------------------|---------|
Bb-|--------|----------|---------|-11-12/----11-12---|-12~~~~~-|
Gb-|----4---|---4------|---4-----|--------4\---------|---------| (x2)
Db-|--2-4-4-|-2-4-4\6--|-2-4-4---|-------------------|---------|
Ab-|--2-2-4-|-2-2-4\6--|-2-2-4---|-------------------|---------|
Eb-|--0---2-|-0---2\4--|-0---2---|-------------------|---------|

outro
Eb-|-------------------------|
Bb-|-------------------------|
Gb-|-------------------------|
Db-|-2-----------------------|
Ab-|-2----------9------------|
Eb-|-0---\6-7-6---6-7-6/0----|     
Добавлено: 19.07.2013
Другие материалы по этой песне:
  • Аккорды и текст

Страница создана 01.04.2012
http://primanota.ru/our-lady-peace/lying-awake-chords.htm
Привет, Гость.
Предлагаем пройти революционный курс по гитаре.
Подарок от PrimaNota.Ru, забирай!