PrimaNota.ru - самый крупный в мире бесплатный архив песенных текстов, аккордов, табулатур и нот


Our Lady Peace - Hope - аккорды и текст, таба, бас-таба, видео

Регистрация Запомнить меня
Войти через:  Facebook Google Twitter Vk Yandex Mail.ru

Our Lady Peace - Hope - аккорды и текст, таба, бас-таба, видео

Печатать
Просмотров: 135
Hope
Our Lady Peace
		   Time: 4/4


Riff 1A:
       ________    ________       ________    ___
      |  |  |  |  |  |  |  |     |  |  |  |  |   |  |
Eb-|--|--|--|--|--|--|--|--|--|--|--|--|--|--|---|--|----|
Bb-|--|--8_(8)-|--8_(8)-|--8__|_(8)-|--8_(8)-|---|--8----|
Gb-|--|--------|--------|-----|-----|--------|---|-------|
Db-|--5--------5--------5-----|-----5--------4sl/5-------|
Ab-|--------------------------|--------------------------|
Db-|--------------------------|--------------------------|

      1     2     3     4        1     2     3      4

Riff 1B:
       ________    ________       ________     __
      |  |  |  |  |  |  |  |     |  |  |  |   |  |  |
Eb-|--|--|--|--|--|--|--|--|--|--|--|--|--|---|--|--|----|
Bb-|--|--8_(8)-|--8_(8)-|--8__|_(8)-|--8--|-/11\10-10\---|
Gb-|--|--------|--------|-----|-----|-----|--------------|
Db-|--5--------5--------5-----|-----5-----5--/8\-7--7\---|
Ab-|--------------------------|--------------------------|
Db-|--------------------------|--------------------------|

      1     2     3     4        1     2      3     4

Riff 1C:
       _________    _________       _________    _________
|  |   |  |  |   |  |  |     |  |   |  |  |   |  |  |
Eb-|--|--|---|--|--|---|--|--|--|--|--|---|--|--|---|--|--|--|
Bb-|--|-11_(11)-|-11_(11)-|-11--|--|-10_(10)-|-10_(10)-|-10--|
Gb-|--|---------|---------|-----|--|---------|---------|-----|
Db-|--8---------8---------8-----|--7---------7---------7-----|
Ab-|----------------------------|----------------------------|
Db-|----------------------------|----------------------------|

      1      2     3      4        1      2     3      4


Riff 1D:
       _________    _________       _________    _________
      |  |   |  |  |   |  |  |     |  |   |  |  |   |  |  |
Eb-|--|--|---|--|--|---|--|--|--|--|--|---|--|--|---|--|--|--|
Bb-|--|-13_(13)-|-13_(13)-|-13--|--|-11_(11)-|-11_(11)-|-11--|
Gb-|--|---------|---------|-----|--|---------|---------|-----|
Db-|-10--------10--------10-----|--8---------8---------8-----|
Ab-|----------------------------|----------------------------|
Db-|----------------------------|----------------------------|

      1      2     3      4        1      2     3      4

Riff 2A:
       ________    ________       ________    ________
      |  |  |  |  |  |  |  |     |  |  |  |  |  |  |  |
Eb-|--|--|--|--|--|--|--|--|--|--|--|--|--|--|--|--|--|--|
Bb-|--|-13--|--|-13--|--|-13--|--|-12--|--|-12--|--|-12--|
Gb-|--|----12--|----12--|-----|--|----11--|----11--|-----|
Db-|-10-------10-------10-----|--9--------9--------9-----|
Ab-|--------------------------|--------------------------|
Eb-|--------------------------|--------------------------|

      1     2     3     4        1     2     3     4

Riff 2B:
       _________    _________        ________    __

      |  |   |  |  |   |  |  |      |  |  |  |  |  |  |
Eb-|--|--|---|--|--|---|--|--|--|---|--|--|--|--|--|--|-----|
Bb-|--|-10_(10)-|-10_(10)-|-10--|---|-10--|--|--|-10--|-----|
Gb-|--|---------|---------|-----|---|-----9--|--|-----9-----|
Db-|--7---------7---------7-----|---7--------7--7-----------|
Ab-|----------------------------|---------------------------|
Db-|----------------------------|---------------------------|

      1      2     3      4         1     2     3     4

Riff 2C:

       _________    _________        _________    __
      |  |   |  |  |   |  |  |      |  |  |   |  |  |   |
Eb-|--|--|---|--|--|---|--|--|--|---|--|--|---|--|--|---|----|
Bb-|--|-15_(15)-|-15_(15)-|-15__|_(15)-|-15_(15)-|-15_(15)---|
Gb-|--|---------|---------|-----|------|---------|-----------|
Db-|-12--------12--------12-----|-----12--------12-----------|
Ab-|----------------------------|----------------------------|
Db-|----------------------------|----------------------------|

      1      2     3      4         1     2      3      4


Riff 3:
            __         __            __         __
      |    |  |  |    |  |     |    |  |  |    |  |
Eb-|--|----|--|--|----|--|--|--|----|--|--|----|--|--|
Bb-|--|----|--|--|----|--|--|--|----|--|--|----|--|--|
Gb-|--|----|--0_(0)__(0)-|--|--|----2--0_(0)__(0)-|--|
Db-|--|----0-------------|--|--|------------------|--|
Ab-|--|------------------|--|--|------------------2--|
Db-|--3------------------0--|--1---------------------|

      1    2     3    4        1    2     3    4
            __                      __    __    _______
      |    |  |  |    |       |    |  |  |  |  |___|   |
Eb-|--|----|--|--|----|----|--|----|--|--|--|--|---|---|--|
Bb-|--|----|--|--|----|----|--|----|--|--|--|--|---|---|--|
Gb-|--|----|--0_(0)__(0)---|--|----|--0--2--3--3/p\2/p\0--|
Db-|--|----0---------------|--|----0----------------------|
Ab-|--3--------------------|--3---------------------------|
Db-|-----------------------|------------------------------|

      1    2     3    4       1    2     3     4

Riff 4A:
       ________    __            __         __     __
      |  |  |  |  |  |  |       |  |  |    |  |   |  |
Eb-|--|--|--|--|--|--|--|----|--|--|--|----|--|---|--|----|
Bb-|--|--|--|--|--|--|--|----|--|--|--|----|--|---|--|----|
Gb-|--|--|--|--|--|--|--|----|--|--3--2~v--3--2~v-3--2~v--|
Db-|--|--|--|--|--|--|--|----|--|-------------------------|
Ab-|--5--5--5--3--3--3--0____|_(0)------------------------|
Db-|--5--5--5--3--3--3--0____|_(0)------------------------|

      1     2     3     4       1     2    3      4

Riff 4B:
       ________
      |  |  |  |    |\ |

Eb-|--|--|--|--|----|--|----|
Bb-|--|--|--|--|----|--|----|
Gb-|--|--|--|--|----|--|----|
Db-|--|--|--|--|----|--|----|
Ab-|--5--5--5--3----0_(0)---|
Db-|--5--5--5--3----0_(0)---|

      1     2     3    4

Riff 4C:
       ________    __
      |  |  |  |  |  |  |
Eb-|--|--|--|--|--|--|--|----|
Bb-|--|--|--|--|--|--|--|----|
Gb-|--|--|--|--|--|--|--|----|
Db-|--|--|--|--|--|--|--|----|
Ab-|--5--5--5--3--3--3--0----|
Db-|--5--5--5--3--3--3--0----|

      1     2     3     4

Riff 5:
       ________    ________       ________    __

      |  |  |  |  |  |  |  |     |  |  |  |  |  |  |
Eb-|--|--|--|--|--|--|--|--|--|--|--|--|--|--|--|--|----|
Bb-|--|--3--|--|--|--3--|--|--|--|--3--|--|--|--3--|----|
Gb-|--2-----2--3_(3)----3--2__|_(2)----2--3_(3)----3----|
Db-|--------------------------|-------------------------|
Ab-|--------------------------|-------------------------|
Db-|--------------------------|-------------------------|

      1     2     3     4        1     2     3     4

Riff 6: (Outro Solo)

                                                |\ |  |  |  |    |\

Eb-|--------------|-----------|-----------|-----|--|--|--|--|----|--|
Bb-|--------------|-----------|-----------|-----|--|--|--|--|----|--|
Gb-|--------------|-----------|-----------|-----|--|-12-14-15---15--|
Db-|-12-----------|-----------|-----------|----12-15----------------|
Ab-|--------------|-----------|-----------|-------------------------|
Db-|--------------|-----------|-----------|-------------------------|

      1  2  3  4     1 2 3 4     1 2 3 4     1     2     3     4


       ________    ________       ________    ________
      |  |  |  |  |  |  |  |     |  |  |  |  |  |  |  |

Eb-|--|--|-15--|-15-17-15--|--|--|--|-15--|-15-17-15--|--|
Bb-|-15-18----15----------18--|-15-18----15----------18--|
Gb-|--------------------------|--------------------------|
Db-|--------------------------|--------------------------|
Ab-|--------------------------|--------------------------|
Db-|--------------------------|--------------------------|

      1     2     3     4        1     2     3     4
            ______                       ______
      |    |   |__|  |    |        |    |   |__|  |

Eb-|--|----|---|--|--|----|----|---|----|---|--|--|---------|
Bb-|-18__(18)-15-15-15---11----|--13__(13)-11-11-11---------|
Gb-|---------------------------|----------------------------|
Db-|---------------------------|----------------------------|
Ab-|---------------------------|----------------------------|
Db-|---------------------------|----------------------------|

      1    2         3    4        1    2         3    4


       __     ___                      ___          ___
      |  |   |   |  |    |       |    |   |   |    |   |
Eb-|--|--|---|---|--|----|----|--|----|---|---|----|---|--|
Bb-|-11--|---|---|--|----|----|--|----|---|---|----|---|--|
Gb-|----12_(12)-10--|----|----|--|----|--10_(10)_(10)-10--|
Db-|---------------12---10----|-10---12-------------------|
Ab-|--------------------------|---------------------------|
Db-|--------------------------|---------------------------|

      1      2      3    4       1    2       3    4

       __________      __________       __________    ____________

      |    |  |  |    |  |  |    |     |  |    |  |  |    |  |    |

Eb-|--|----|--|--|----|--|--|----|--|--|--|----|--|--|----|--|----|--|
Bb-|-11/p\10--|-13/p\10--|-11/p\10--|--|-13/p\10--|-11/p\10--|----|--|
Gb-|---------10---------10----------|-10---------10---------12/p\10--|
Db-|--------------------------------|--------------------------------|
Ab-|--------------------------------|--------------------------------|
Db-|--------------------------------|--------------------------------|

      1       2       3     4          1       2     3       4

       __________     ___             ________    __
      |    |  |  |   |   |   |       |  |  |  |  |  |  |

Eb-|--|----|--|--|---|---|---|----|--|--|--|--|--|--|--|----|
Bb-|--|----|--|--|---|---|---|----|--|--|--|--|--|--|--|----|
Gb-|--|----|-10--|---|---|---|----|--|--|-10-12-10-10--|----|
Db-|-10/h\12----12_(12)-10_(10)---|-10-12-------------12----|
Ab-|------------------------------|-------------------------|
Db-|------------------------------|-------------------------|

      1       2      3       4       1     2     3     4

       __________      __________       __________
      |    |  |  |    |  |  |    |     |  |    |  |
Eb-|--|----|--|--|----|--|--|----|--|--|--|----|--|------------------|
Bb-|-11/p\10--|-13/p\10--|-11/p\10--|--|-13/p\10--|------------------|
Gb-|---------10---------10----------|-10---------10--fade-out--------|
Db-|--------------------------------|--------------------------------|
Ab-|--------------------------------|--------------------------------|
Eb-|--------------------------------|--------------------------------|




Arrangement:


    |Riff 1A|Riff 1A|

(Band In)
    |Riff 1A|Riff 1B|

First Verse:

    |Riff 1A|Riff 1B|Riff 1C|Riff 1A|
    |Riff 1A|Riff 1B|Riff 1D|Riff 1A|
    Hope climbs atop of the piano
    Reaching out for the warmth of the sun
    Some man tries to ask her down
    But, now maybe that's where she belongs


    |Riff 2A|Riff 2B|Riff 2A|Riff 2C|
    My God she said, "I'm the sunflower who wants"
    My God he said, "This woman is gone..."

Chorus:

    |Riff 3|
    Into the dark is there anybody there?

    |Riff 4A|Riff 4A|Riff 4A|Riff 4B|
    My God she said

    |Riff 1A|Riff 1B|

Second Verse:

    |Riff 1A|Riff 1B|Riff 1C|Riff 1A|
    |Riff 1A|Riff 1B|Riff 1D|Riff 1A|
    He climbed up top to find that she was slipping
    Let her go, let her go, let me go
    How long must we leave before we're winning?
    They don't know they don't know, they just don't know

Pre Chorus:

    |Riff 2A|Riff 2B|Riff 2A|Riff 2C|

Repeat Chorus:
    |Riff 3|
    |Riff 4A|Riff 4A|Riff 4A|Riff 4A|

Bridge:

    |Riff 5|Riff 5|Riff 5|Riff 5|Riff 5|Riff 5|
    If she can't be there I know it's best that nothing is denied
    If she can't be there I know it's best that everyone changed sides

Alternate Chorus:

    |Riff 3|Riff 3|Riff 3|Riff 3|Riff 3|Riff 3|
    |Riff 4A|Riff 4A|Riff 4A|Riff 4A|
    |Riff 4A|Riff 4A|Riff 4A|Riff 4C|

Outro (w/Riff 6)

    |Riff 5|Riff 5|Riff 5|Riff 5|Riff 5|Riff 5|
    |Riff 5|Riff 5|Riff 5|Riff 5|Riff 5|....fade out....     
Добавлено: 09.06.2013
Другие материалы по этой песне:

Страница создана 23.02.2012
http://primanota.ru/our-lady-peace/hope-chords.htm
Привет, Гость.
Предлагаем пройти революционный курс по гитаре.
Подарок от PrimaNota.Ru, забирай!