PrimaNota.ru - самый крупный в мире бесплатный архив песенных текстов, аккордов, табулатур и нот


Our Lady Peace - Hello Oscar - таба, видео

Регистрация Запомнить меня
Войти через:  Facebook Google Twitter Vk Yandex Mail.ru

Our Lady Peace - Hello Oscar - таба, видео

Печатать
Просмотров: 78
HELLO OSKAR
tabbed by : OLPKID (jason)

tunning
eb ab db gb bb eb

/= slide up
\= slide down
*x* = harmonic
x=mute

PS- alot of the harmonics u hear is feedback....but ill try and tab the 
harmonics....

eb-|------------------------------------------------------------12---
bb-|-------10---------------------------------------------------------
gb-|-13/12-12-12-x-x-12-x-x-12-12-13/12-13/12-13/12-11-12-x-x-12------
db-|--x/-x--x--x-x-x--x-x-x--x--x--x/-x--x/-x--x/-x--x--x-x-x--x------
ab-|-11/10-10-10-x-x-10-x-x-10-10-11/10-11/10-11/10--9-10-x-x-10------
eb-|--------------------------------------------------
                       LOTS OF FEEDBACK
eb-|-----------------------*7*------------------|
bb-|-------------------*7*-----*7*--*7*---------|
gb-|-12-12-13/12-11/-4--------------------------|
db-|--x--x--x/-x--x/-2--------------------------|
ab-|-10-10-11/10--9/-2--------------------------|
eb-|-----------------0-------------------*5*----|


----------------------------------------
----------------------------------------
----13-12-----------------------12------
----------12-------12--------12-------14
----------------12--------12-------12---
-12----------15-------14----------------
"And over there        he's the rubber-

----------------------------------------
----------------------------------------
-14-15-14----13-12----------------------
-------------------12-------12-------12-
----------12-------------12-------12----
----------------------15-------14-------
man,      a rubber dress with Betty Page

          vib..
----------------------------------------
----------------------------------------
-12-------15-----13-12------------------
-------14--------------12-------12------
----12-----------------------12---------
--------------12----------15-------14---
eyes.          Was never cool     he'll

                      vib..
----------------------------------------
----------------------------------------
-------12-------14-15-14-----13-12------
----12-------14--------------------12---
-12-------12---------------12-----------
--------------------------------------15
never  settle       down.       He's not

                               vib..
------------------------------------
------------------------------------
----------------------12-------15---
----12-------------12-------14------
-12--------(14)-12-------12---------
-------14---------------------------
allowed       to     drive."

     x3         4th    high notes during pre chorus
eb-|----------|------|-----------------------------------------------
bb-|----------|------|-14-15~~-13-15~~-15-17~~~-15-17~~\slideupneck--
gb-|----7-----|------|-----------------------------------------------
db-|-2--7-5-7-|--2---|-----------------------------------------------
ab-|-2--5-5-7-|--2---|-----------------------------------------------
eb-|-0----3-5-|--0---|-----------------------------------------------
CHORUS
    chords |high notes 1|HN 2  |HN 3   |
eb-|-------|------------|------|-------|------------------|
bb-|-------|-9B-9B------|-9B---|-9B-9B-|------------------|
gb-|-5-----|------------|---10-|-------|-7-9-10-12--7-9---|
db-|-5-2-7-|------------|------|-------|-x-x--x--x--x-x---|
ab-|-3-2-7-|------------|------|-------|-5-7--8-10--5-7---|
eb-|---0-5-|------------|------|-------|------------------|

eb-|--------------------------------|
bb-|--------------------------------|
gb-|-12/13-12-x-x-12---x-12-12-13---|
db-|--x/-x--x-x-x--x---x--x--x--x---|
ab-|-10/11-10-x-x-10---x-10-10-11---|
eb-|--------------------------------|

eb-|---------*7*--|
bb-|-----*7*------|
gb-|-4------------|
db-|-4------------|
ab-|-2------------|
eb-|-0------------|

------------------------
------------------------
----13-12---------------
----------------12------
-------------12---------
12--------15-------14---
          Was never cool     he'll

                      vib..
----------------------------------------
----------------------------------------
-------12-------14-15-14-----13-12------
----12-------14--------------------12---
-12-------12---------------12-----------
--------------------------------------15
never  settle       down.       He's not

                               vib..
------------------------------------
------------------------------------
----------------------12-------15---
----12-------------12-------14------
-12--------(14)-12-------12---------
-------14---------------------------
allowed       to     drive."

     x3         4th    high notes during pre chorus
eb-|----------|------|-----------------------------------------------
bb-|----------|------|-14-15~~-13-15~~-15-17~~~-15-17~~\slideupneck--
gb-|----7-----|------|-----------------------------------------------
db-|-2--7-5-7-|--2---|-----------------------------------------------
ab-|-2--5-5-7-|--2---|-----------------------------------------------
eb-|-0----3-5-|--0---|-----------------------------------------------

    chords |high notes 1|HN 2  |HN 3   |
eb-|-------|------------|------|-------|-----------------------|
bb-|-------|-9B-9B------|-9B---|-9B-9B-|-----------------------|
gb-|-5-----|------------|---10-|-------|-7-9-10-12--7-9-10-12--|
db-|-5-2-7-|------------|------|-------|-x-x--x--x--x-x--x--x--|
ab-|-3-2-7-|------------|------|-------|-5-7--8-10--5-7--8-10--|
eb-|---0-5-|------------|------|-------|-----------------------|

"i will t-t i will ttake...i will t-t"
eb-|-----------|  |-------|
bb-|-----------|  |-------|
gb-|-----------|x3|-------|4th time
db-|-8-7----7--|  |-8-7---|
ab-|-6-5--8-7--|  |-6-5---|
eb-|------6-5--|  |-------|

    chords |high notes 1|HN 2  |HN 3   |
eb-|-------|------------|------|-------|
bb-|-------|-9B-9B------|-9B---|-9B-9B-|
gb-|-5-----|------------|---10-|-------|
db-|-5-2-7-|------------|------|-------|
ab-|-3-2-7-|------------|------|-------|
eb-|---0-5-|------------|------|-------|

   x9             x3
|---------------|-----|
|---------------|-----|
|-7-9-10-12-----|-----|
|-x-x--x--x-----|--2--|
|-5-7--8-10-----|--2--|
|---------------|--0--|

and thats it


Добавлено: 05.06.2013
Другие материалы по этой песне:
  • Аккорды и текст

Страница создана 05.06.2013
http://primanota.ru/our-lady-peace/hello-oscar-chords.htm
Привет, Гость.
Предлагаем пройти революционный курс по гитаре.
Подарок от PrimaNota.Ru, забирай!