PrimaNota.ru - самый крупный в мире бесплатный архив песенных текстов, аккордов, табулатур и нот


Our Lady Peace - Happiness The Fish - текст песни, таба, видео

Регистрация Запомнить меня
Войти через:  Facebook Google Twitter Vk Yandex Mail.ru

Our Lady Peace - Happiness The Fish - текст песни, таба, видео

Печатать
Просмотров: 117
Author/Artist: Our Lady Peace
Title: Happiness & The Fish
x scratch note

Strum Throughout

Standard Tuning

--------|-8-----7----6----|--|------------------|-----------------------------|
--------|-9-----9----8----|--|------------------|-----------------------------|
--------|-13----9----8----|--|---------------20v|-----------------------------|
--------|-10----9----8----|--|-9-------8--------|-----------------------------|
--------|-11----7----6----|--|-7-------6--------|-----------------------------|
--------|-11----0----6----|--|-x-------x--------|-----------------------------|
          Verse Chords        "Every..Just......"

--------|-9----11----7----7---|--|-------------|------------------------------|
------x-|-9----9-----5----7---|--|-------------|------------------------------|
--------|-11---13----9----9---|--|-------------|------------------------------|
--------|-9----11----7----9---|--|-7-----9-----|------------------------------|
--------|-9----11----7----7---|--|-7-----7-----|------------------------------|
------x-|-7----9-----5----7---|--|-x-----x-----|------------------------------|
          Chorus Chords           Chorus End

--------|-8-------------------|-11----9----7----|--|------------|-------------|
--------|-9-------------------|-9-----9----7----|--|------------|-------------|
--------|-13------------------|-13----11---9----|--|------------|-------------|
--------|-10------------------|-13----11---9----|--|-9-----8----|-------------|
--------|-11------------------|-11----11---7----|--|-7-----6----|-------------|
--------|-11------------------|-11----9----7----|--|-x-----x----|-------------|
          "oooh hah.hhah..."    Solo Chords
Добавлено: 30.04.2012
Другие материалы по этой песне:
  • Аккорды и текст

Страница создана 07.04.2012
http://primanota.ru/our-lady-peace/happiness-the-fish-chords.htm
Привет, Гость.
Предлагаем пройти революционный курс по гитаре.
Подарок от PrimaNota.Ru, забирай!