PrimaNota.ru - самый крупный в мире бесплатный архив песенных текстов, аккордов, табулатур и нот


Our Lady Peace - Denied - аккорды и текст, таба, видео

Регистрация Запомнить меня
Войти через:  Facebook Google Twitter Vk Yandex Mail.ru

Our Lady Peace - Denied - аккорды и текст, таба, видео

Печатать
Просмотров: 124
Уроки эстрадного вокала в Санкт-Петербурге
Denied
Our Lady Peace
		   Tune to:  Db Ab Db Gb Bb Eb

Fig.1
|-------------------------------------------------------|
|---------------------------------------/8-----10-------|
|---7-7---7------7-7---7------7-7---7------9------10----|
|-0-----0---0--0-----0---0--0-----0---0------0-------0--|
|-------------------------------------------------------|
|-------------------------------------------------------|


Fig.2
|----------------------------------------------------|
|-------6------------6------------6-----6-----6------|
|---7-----9-7----7-----9-7----7-----9-7---9-7---9-7--|
|-0---0--------0---0--------0---0--------------------|
|----------------------------------------------------|
|----------------------------------------------------|


Fig.3
|---------------------------------------------|
|---------------------------------------------|
|-7-7-7-7-/10-10-10-10-\5-5-5-5-/10-9h10p9-5--|
|-0-------------------------------------------|
|---------------------------------------------|
|---------------------------------------------|


Fig.4
|--------------------------------------------|
|--------------------------------------------|
|-7-7-7--7~~---------7~~---------7~~--2---5--|
|-7-7-7--0----3-3-3--0----5-5-5--0----2---5--|
|-5-5-5-------3-3-3-------5-5-5-------0---3--|
|-0-0-0-------3-3-3-------5-5-5--------------|


*SOLO*

slight bends on all the notes on this section (play twice)
|-----------------------------------------|
|-10-10-10-10-10-10-10-10-10-10-12-12-12--|
|-10-10-10-10-10-10-10-10-10-10-10-10-10--|
|-----------------------------------------|
|-----------------------------------------|
|-----------------------------------------|


you might want to use a whammy bar for the vibrato on this part
(I'm not quite sure about the notes)
|-16~~-----16~~-----16~~-----16~~-----|
|-15~~-15--15~~-15--15~~-15--15~~-15--|
|------13-------13-------13-------13--|
|-------------------------------------|
|-------------------------------------|
|-------------------------------------|


slight bends on second string for this part
  /           \
|-8-8-8-8-8-8-8-----------|
|-9-9-9-9-9-9-9-9--8--7~~-|
|-------------------------|
|-------------------------|
|-------------------------|
|-------------------------|


tremolo picking on all of these notes (fast)
|-------------------------------------------------------------
|-------------------------------------------------------------
|-7-7-7-7-7-7-7-7-7-7-7-7-10-10-10-10-10-10-12-12-12-12-12-12-
|-------------------------------------------------------------
|-5-5-5-5-5-5-5-5-5-5-5-5--8--8--8--8--8--8-10-10-10-10-10-10-
|-------------------------------------------------------------

----------------------------------------------------------------------|
-13-13-13-13-13-13-15-15-15-15-15-15-18-18-18-18-18-18-20-20-20-20-20-|
----------------------------------------------------------------------|
-10-10-10-10-10-10-12-12-12-12-12-12-15-15-15-15-15-15-17-17-17-17-17-|
----------------------------------------------------------------------|
----------------------------------------------------------------------|


Fig.5
|-----------------------------------------------------------------------
|-----------------------------------------------------------------------
|-7-7-7-7-9-9-9-9-10-10-10-10-12-12-12-12-14-14-14-14-14--14-14-14-14-14
|-0----------------------------------------0----------------------------
|-----------------------------------------------------------------------
|-----------------------------------------------------------------------

-----------------------------------------------------------------|
-----------------------------------------------------------------|
-14-14-14-14-14--14-14-14-14-14--14-14-14-14-14--14-14-14-14-14--|
-----------------------------------------------------------------|
-----------------------------------------------------------------|
-----------------------------------------------------------------|


Fig.6
|----------------------------------------------|
|----------------------------------------------|
|-7-7-7-7-7-7----------------------------2--5--|
|-7-7-7-7-7-7--3-3-3-3-3-3--5-5-5-5-5-5--2--5--|
|-5-5-5-5-5-5--3-3-3-3-3-3--5-5-5-5-5-5--0--3--|
|-0-0-0-0-0-0--3-3-3-3-3-3--5-5-5-5-5-5--------|


PUTTING IT TOGETHER

Fig.1 x2

Fig.1	The telephone is ringing, disconnect the line
Fig.1	The tension oh its building, but I'm alright, yeah I'm all right
Fig.2	And the stars are colliding so you might as well, oh you might as well

Fig.3
Fig.3	Let me go

Fig. 1 x2

Fig.1	The television is burning, I set it on fire
Fig.2	The wheels they keep turing but I'm fine, yeah I'm fine

Fig.3	What about the questions we have
Fig.3	Locked up inside

Fig.4	Somewhere, somehow we've been denied
Fig.4	Hand in hand we walk blind
Fig.4	Pretending, defending while our souls are tied

Fig.1
Fig.1	It's only the third hour, my conscience subsides
Fig.2	But something reminds me that you lied, yeah you lied

Fig.3	What about the consequences
Fig.3	This can't be right

Fig.4	Somewhere, somehow we've been denied
Fig.4	Hand in hand we walk blind
Fig.4	Pretending, defending while our souls are tied

Solo

Fig.3 x3
Fig.5

Fig.4	Somewhere, somehow we've been denied
Fig.4	Hand in hand we walk blind
Fig.4	Pretending, defending while our souls are tied

Fig.6 (repeat till end)
Adlib (feedback etc.)     
Добавлено: 21.07.2013
Другие материалы по этой песне:
  • Аккорды и текст

Страница создана 24.03.2012
http://primanota.ru/our-lady-peace/denied-chords.htm
Привет, Гость.
Предлагаем пройти революционный курс по гитаре.
Подарок от PrimaNota.Ru, забирай!