PrimaNota.ru - самый крупный в мире бесплатный архив песенных текстов, аккордов, табулатур и нот


Ought - Waiting - таба, видео

Регистрация Запомнить меня
Войти через:  Facebook Google Twitter Vk Yandex Mail.ru

Ought - Waiting - таба, видео

Печатать
Просмотров: 116
-------------------------------------------------------------------------------
                             Waiting - Ought
-------------------------------------------------------------------------------

Tuning: Standard

(not exact picking structure)

Intro:

e|---------------------------------------------------------------------------|
B|---------------------------------------------------------------------------|
G|---------------------------------------------------------------------------|
D|---------------------------------------------------------------------------|
A|------7------7-----7-----7------7------7-----7-----77--9999----------------|  4x
E|--55-----55-----5-----5-----55-----55-----5-----5--------------------------|

e|---------------------------------------------------------------------------|
B|---------------------------------------------------------------------------|
G|---------------------------------------------------------------------------|
D|--9h11-11--11p9-9h11-11-11-11p9--9h11-11-11p9--7b--------------------------| 2x
A|---------------------------------------------------------------------------|
E|---------------------------------------------------------------------------|

e|---------------------------------------------------------------------------|
B|---------------------------------------------------------------------------|
G|---------------------------------------------------------------------------|
D|---------------------------------------------------------------------------|
A|------7------7-----7-----7------7------7-----7-----77--9999----------------|
E|--55-----55-----5-----5-----55-----55-----5-----5--------------------------|

Verse 1:

either

e|---------------------------------------------------------------------------|
B|---------------------------------------------------------------------------|
G|---------------------------------------------------------------------------|
D|---------------------------------------------------------------------------|
A|------7------7-----7-----7------7------7-----7-----77--9999----------------|
E|--55-----55-----5-----5-----55-----55-----5-----5--------------------------|

or

e|---------------------------------------------------------------------------|
B|---------------------------------------------------------------------------|
G|---------------------------------------------------------------------------|
D|---------------------------------------------------------------------------|
A|-----------------------------(7)---and still end on the (9999)-------------|
E|--play this chord to rhythm--(5)-------------------------------------------|

Chorus:

e|---------------------------------------------------------------------------|
B|---------------------------------------------------------------------------|
G|---------------------------------------------------------------------------|
D|--9h11-11--11p9-9h11-11-11-11p9--9h11-11-11p9--7b--------------------------|
A|---------------------------------------------------------------------------|
E|---------------------------------------------------------------------------|

e|---------------------------------------------------------------------------|
B|---------------------------------------------------------------------------|
G|---------------------------------------------------------------------------|
D|--9h11-11--11p9-9h11-11-11-11p9--9h11-11-11p9--14b-------------------------|
A|---------------------------------------------------------------------------|
E|---------------------------------------------------------------------------|

repeat once

Verse 2:

e|---------------------------------------------------------------------------|
B|---------------------------------------------------------------------------|
G|---------------------------------------------------------------------------|
D|---------------------------------------------------------------------------|
A|-----------------------------(7)---and still end on the (9999)-------------|  4x
E|--play this chord to rhythm--(5)-------------------------------------------|

e|---------------------------------------------------------------------------|
B|---------------------------------------------------------------------------|
G|---------------------------------------------------------------------------|
D|--77777777--77777777-------------------------------------------------------|
A|--99999999--55555555-------------------------------------------------------|  2x
E|--(9)(9)(9)-(5)(5)(5)------------------------------------------------------|

Chorus:

e|---------------------------------------------------------------------------|
B|---------------------------------------------------------------------------|
G|---------------------------------------------------------------------------|
D|--9h11-11--11p9-9h11-11-11-11p9--9h11-11-11p9--7b--------------------------|
A|---------------------------------------------------------------------------|
E|---------------------------------------------------------------------------|

e|---------------------------------------------------------------------------|
B|---------------------------------------------------------------------------|
G|---------------------------------------------------------------------------|
D|--9h11-11--11p9-9h11-11-11-11p9--9h11-11-11p9--14b-------------------------|
A|---------------------------------------------------------------------------|
E|---------------------------------------------------------------------------|

repeat once

Solo:

he plays this chord in the beginning and then fools around in the higher register

e|--------------------------15-----------------------------------------------|
B|---------------------------------------------------------------------------|
G|--13----------------------13-----------------------------------------------|
D|--14--occassionally this--14-----------------------------------------------|
A|--12----------------------12-----------------------------------------------|
E|---------------------------------------------------------------------------|

Verse 3:

e|---------------------------------------------------------------------------|
B|---------------------------------------------------------------------------|
G|---------------------------------------------------------------------------|
D|--77777777--77777777-------------------------------------------------------|
A|--99999999--55555555-------------------------------------------------------|  2x
E|--(9)(9)(9)-(5)(5)(5)------------------------------------------------------|

Chorus:

e|---------------------------------------------------------------------------|
B|---------------------------------------------------------------------------|
G|---------------------------------------------------------------------------|
D|--9h11-11--11p9-9h11-11-11-11p9--9h11-11-11p9--7b--------------------------|
A|---------------------------------------------------------------------------|
E|---------------------------------------------------------------------------|

e|---------------------------------------------------------------------------|
B|---------------------------------------------------------------------------|
G|---------------------------------------------------------------------------|
D|--9h11-11--11p9-9h11-11-11-11p9--9h11-11-11p9--14b-------------------------|
A|---------------------------------------------------------------------------|
E|---------------------------------------------------------------------------|

repeat once

Bridge:

e|---------------------------------------------------------------------------|
B|---------------------------------------------------------------------------|
G|---------------------------------------------------------------------------|
D|---------------------------------------------------------------------------|
A|--9/14-14-14-1414-1414-14141414--------------------------------------------|  4x
E|---------------------------------------------------------------------------|

e|---------------------------------------------------------------------------|
B|-----------------------slowly slide up this part---------------------------|
G|---------------------------------------------------------------------------|
D|--6666666/131313131313/171717171717-----then continue sliding up-----------|
A|--7777777/141414141414/191919191919----------------------------------------|
E|--8888888------------------------------------------------------------------|

e|---------------------------------------------------------------------------|
B|---------------------------------------------------------------------------|
G|---------------------------------------------------------------------------|
D|---------------------------------------------------------------------------|
A|--------19--------19------19------19--21212121-----------------------------|
E|--1717------1717------17------17-------------------------------------------|

Similar to solo, keep playing around in the higher register

"In the street" part:

e|---------------------------------------------------------------------------|
B|---------------------------------------------------------------------------|
G|---------------------------------------------------------------------------|
D|--1313131313/181818181818181818--------------------------------------------|
A|--1414141414/191919191919191919--------------------------------------------|
E|---------------------------------------------------------------------------|

Chorus:

e|---------------------------------------------------------------------------|
B|---------------------------------------------------------------------------|
G|---------------------------------------------------------------------------|
D|--9h11-11--11p9-9h11-11-11-11p9--9h11-11-11p9--7b--------------------------|
A|---------------------------------------------------------------------------|
E|---------------------------------------------------------------------------|

e|---------------------------------------------------------------------------|
B|---------------------------------------------------------------------------|
G|---------------------------------------------------------------------------|
D|--9h11-11--11p9-9h11-11-11-11p9--9h11-11-11p9--14b-------------------------|
A|---------------------------------------------------------------------------|
E|---------------------------------------------------------------------------|

repeat once

Outro:

e|---------------------------------------------------------------------------|
B|---------------------------------------------------------------------------|
G|---------------------------------------------------------------------------|
D|---------------------------------------------------------------------------|
A|-----------------------------(7)---and still end on the (9999)-------------|
E|--play this chord to rhythm--(5)-------------------------------------------|

Chorus:

e|---------------------------------------------------------------------------|
B|---------------------------------------------------------------------------|
G|---------------------------------------------------------------------------|
D|--9h11-11--11p9-9h11-11-11-11p9--9h11-11-11p9--7b--------------------------|
A|---------------------------------------------------------------------------|
E|---------------------------------------------------------------------------|

e|---------------------------------------------------------------------------|
B|---------------------------------------------------------------------------|
G|---------------------------------------------------------------------------|
D|--9h11-11--11p9-9h11-11-11-11p9--9h11-11-11p9--14b-------------------------|
A|---------------------------------------------------------------------------|
E|---------------------------------------------------------------------------|

repeat once
Добавлено: 11.06.2015
Другие материалы по этой песне:
  • Аккорды и текст

Страница создана 11.06.2015
http://primanota.ru/ought/waiting-chords.htm
Привет, Гость.
Предлагаем пройти революционный курс по гитаре.
Подарок от PrimaNota.Ru, забирай!