PrimaNota.ru - самый крупный в мире бесплатный архив песенных текстов, аккордов, табулатур и нот


Ought - Today More Than Any Other Day - таба, бас-таба, видео

Регистрация Запомнить меня
Войти через:  Facebook Google Twitter Vk Yandex Mail.ru

Ought - Today More Than Any Other Day - таба, бас-таба, видео

Печатать
Просмотров: 148
Авторы: Ought

-------------------------------------------------------------------------------
                             Today More Than Any Other Day - Ought
-------------------------------------------------------------------------------

Tuning: Standard

e|--------------------------------------------------------------------|
B|--------------------------------------------------------------------|
G|------------------7b--------------------7b---------------------7b---|
D|----7---------7----------7---------7-----------7---------7----------|
A|--7---------7----------7---------7-----------7---------7------------|
E|------5---------5----------5---------5-----------5---------5--------|

e|----------------------------------------------------------------------------|
B|----------------------------------------------------------------------------|
G|------------------7b------------------------7b-------------------------7b---|
D|----7---------7----------7-----7777----7-----7777------7---------7----------|
A|--7---------7----------7-------------7---------------7---------7------------|
E|------5---------5----------5-------------5---------------5---------5--------|

e|----------------------------|
B|----------------------------|
G|---------------------7------|
D|--7---7------7---7-----7777-|
A|--7-7--------7-7------------|
E|--------5----------5--------|

e|------------------------------------|
B|------------------------------------|
G|------------------------------------|
D|--7-7-7-7-7-7-7-7-6-6-6-6-5-5-5-5---|
A|--7-7-7-7-7-7-7-7-6-6-6-6-5-5-5-5---|
E|--5-5-5-5-5-5-5-5-4-4-4-4-3-3-3-3---|

e|------------------------------------|
B|------------------------------------|
G|------------------------------------|
D|--7-7-7-7-7-7-7-7-6-6-6-6-5-5-5-5---|
A|--7-7-7-7-7-7-7-7-6-6-6-6-5-5-5-5---|
E|--5-5-5-5-5-5-5-5-4-4-4-4-3-3-3-3---|

e|------------------------------------|
B|------------------------------------|
G|------------------------------------|
D|--7-7-7-7-7-7-7-7-6-6-6-6-5-5-5-5---|
A|--7-7-7-7-7-7-7-7-6-6-6-6-5-5-5-5---|
E|--5-5-5-5-5-5-5-5-4-4-4-4-3-3-3-3---|

e|------------------------------------|
B|------------------------------------|
G|------------------------------------|
D|--7-7-7-7-7-7-7-7-6-6-6-6-5-5-5-5---|
A|--7-7-7-7-7-7-7-7-6-6-6-6-5-5-5-5---|
E|--5-5-5-5-5-5-5-5-4-4-4-4-3-3-3-3---|

e|--------------------|
B|--------------------|
G|--------------------|
D|--7-7-7-7-7-7-7-7---|
A|--7-7-7-7-7-7-7-7---|
E|--5-5-5-5-5-5-5-5---|

e|-------------|  Do this for a while
B|-------------|
G|-------------|
D|--9-9-9-9-9--|
A|--9-9-9-9-9--|
E|--7-7-7-7-7--|

e|-------------------------------------------------------------------------------------|
B|-------------------------------------------------------------------------------------|
G|-------------------------------------------------------------------------------------|
D|--9-9-9-9-9-9-9-9-9-9-9-9-9-9-9-9-9-14-14-14-14-14-14-14-14-14-14-14-14-14-14-14-14--|
A|--9-9-9-9-9-9-9-9-9-9-9-9-9-9-9-9-9-14-14-14-14-14-14-14-14-14-14-14-14-14-14-14-14--|
E|--7-7-7-7-7-7-7-7-7-7-7-7-7-7-7-7-7-12-12-12-12-12-12-12-12-12-12-12-12-12-12-12-12--|

e|-------------------------------------------------------------------------------------|
B|-------------------------------------------------------------------------------------|
G|-------------------------------------------------------------------------------------|
D|--9-9-9-9-9-9-9-9-9-9-9-9-9-9-9-9-9-14-14-14-14-14-14-14-14-14-14-14-14-14-14-14-14--|
A|--9-9-9-9-9-9-9-9-9-9-9-9-9-9-9-9-9-14-14-14-14-14-14-14-14-14-14-14-14-14-14-14-14--|
E|--7-7-7-7-7-7-7-7-7-7-7-7-7-7-7-7-7-12-12-12-12-12-12-12-12-12-12-12-12-12-12-12-12--|

e|-------------------------------------------------------------------------------------|
B|-------------------------------------------------------------------------------------|
G|-------------------------------------------------------------------------------------|
D|--9-9-9-9-9-9-9-9-9-9-9-9-9-9-9-9-9-14-14-14-14-14-14-14-14-14-14-14-14-14-14-14-14--|
A|--9-9-9-9-9-9-9-9-9-9-9-9-9-9-9-9-9-14-14-14-14-14-14-14-14-14-14-14-14-14-14-14-14--|
E|--7-7-7-7-7-7-7-7-7-7-7-7-7-7-7-7-7-12-12-12-12-12-12-12-12-12-12-12-12-12-12-12-12--|

e|-------------------------------------------------------------------------------------|
B|-------------------------------------------------------------------------------------|
G|-------------------------------------------------------------------------------------|
D|--9-9-9-9-9-9-9-9-9-9-9-9-9-9-9-9-9-14-14-14-14-14-14-14-14-14-14-14-14-14-14-14-14--|
A|--9-9-9-9-9-9-9-9-9-9-9-9-9-9-9-9-9-14-14-14-14-14-14-14-14-14-14-14-14-14-14-14-14--|
E|--7-7-7-7-7-7-7-7-7-7-7-7-7-7-7-7-7-12-12-12-12-12-12-12-12-12-12-12-12-12-12-12-12--|

e|--------------|
B|--------------|
G|--------------|
D|--9-9-14-14---|
A|--9-9-14-14---|
E|--7-7-12-12---|

Guitar drops out for a few measures

e|-------------------------------------------------------------------------------------|
B|-------------------------------------------------------------------------------------|
G|-------------------------------------------------------------------------------------|
D|--9-9-9-9-9-9-9-9-9-9-9-9-9-9-9-9-9-14-14-14-14-14-14-14-14-14-14-14-14-14-14-14-14--|
A|--9-9-9-9-9-9-9-9-9-9-9-9-9-9-9-9-9-14-14-14-14-14-14-14-14-14-14-14-14-14-14-14-14--|
E|--7-7-7-7-7-7-7-7-7-7-7-7-7-7-7-7-7-12-12-12-12-12-12-12-12-12-12-12-12-12-12-12-12--|

e|-------------------------------------------------------------------------------------|
B|-------------------------------------------------------------------------------------|
G|-------------------------------------------------------------------------------------|
D|--9-9-9-9-9-9-9-9-9-9-9-9-9-9-9-9-9-14-14-14-14-14-14-14-14-14-14-14-14-14-14-14-14--|
A|--9-9-9-9-9-9-9-9-9-9-9-9-9-9-9-9-9-14-14-14-14-14-14-14-14-14-14-14-14-14-14-14-14--|
E|--7-7-7-7-7-7-7-7-7-7-7-7-7-7-7-7-7-12-12-12-12-12-12-12-12-12-12-12-12-12-12-12-12--|

e|-------------------------------------------------------------------------------------|
B|-------------------------------------------------------------------------------------|
G|-------------------------------------------------------------------------------------|
D|--9-9-9-9-9-9-9-9-9-9-9-9-9-9-9-9-9-14-14-14-14-14-14-14-14-14-14-14-14-14-14-14-14--|
A|--9-9-9-9-9-9-9-9-9-9-9-9-9-9-9-9-9-14-14-14-14-14-14-14-14-14-14-14-14-14-14-14-14--|
E|--7-7-7-7-7-7-7-7-7-7-7-7-7-7-7-7-7-12-12-12-12-12-12-12-12-12-12-12-12-12-12-12-12--|

e|-------------------------------------------------------------------------------------|
B|-------------------------------------------------------------------------------------|
G|-------------------------------------------------------------------------------------|
D|--9-9-9-9-9-9-9-9-9-9-9-9-9-9-9-9-9-14-14-14-14-14-14-14-14-14-14-14-14-14-14-14-14--|
A|--9-9-9-9-9-9-9-9-9-9-9-9-9-9-9-9-9-14-14-14-14-14-14-14-14-14-14-14-14-14-14-14-14--|
E|--7-7-7-7-7-7-7-7-7-7-7-7-7-7-7-7-7-12-12-12-12-12-12-12-12-12-12-12-12-12-12-12-12--|

e|-------------------------------------------------------------------------------------|  Not so sure about
B|-------------------------------------------------------------------------------------|  this next part
G|-------------------------------------------------------------------------------------|
D|--9-9-9-9-9-9-9-9-9-9-9-9-9-9-9-9-9-14-14-14-14-14-14-14-14-14-14-14-14-14-14-14-14--|
A|--9-9-9-9-9-9-9-9-9-9-9-9-9-9-9-9-9-14-14-14-14-14-14-14-14-14-14-14-14-14-14-14-14--|
E|--7-7-7-7-7-7-7-7-7-7-7-7-7-7-7-7-7-12-12-12-12-12-12-12-12-12-12-12-12-12-12-12-12--|

e|------------------------------------------------------------------------------------------------------|
B|------------------------------------------------------------------------------------------------------|
G|------------------------------------------------------------------------------------------------------|
D|--16-16-16-16-16-16-16-16-16-16-16-16-16-16-16-16-16-18-18-18-18-18-18-18-18-18-18-18-18-18-18-18-18--|
A|--16-16-16-16-16-16-16-16-16-16-16-16-16-16-16-16-16-18-18-18-18-18-18-18-18-18-18-18-18-18-18-18-18--|
E|--14-14-14-14-14-14-14-14-14-14-14-14-14-14-14-14-14-16-16-16-16-16-16-16-16-16-16-16-16-16-16-16-16--|

e|-------------------------------------------------------------------------------------|
B|-------------------------------------------------------------------------------------|
G|-------------------------------------------------------------------------------------|
D|--9-9-9-9-9-9-9-9-9-9-9-9-9-9-9-9-9-14-14-14-14-14-14-14-14-14-14-14-14-14-14-14-14--|
A|--9-9-9-9-9-9-9-9-9-9-9-9-9-9-9-9-9-14-14-14-14-14-14-14-14-14-14-14-14-14-14-14-14--|
E|--7-7-7-7-7-7-7-7-7-7-7-7-7-7-7-7-7-12-12-12-12-12-12-12-12-12-12-12-12-12-12-12-12--|

e|------------------------------------------------------------------------------------------------------|
B|------------------------------------------------------------------------------------------------------|
G|------------------------------------------------------------------------------------------------------|
D|--16-16-16-16-16-16-16-16-16-16-16-16-16-16-16-16-16-18-18-18-18-18-18-18-18-18-18-18-18-18-18-18-18--|
A|--16-16-16-16-16-16-16-16-16-16-16-16-16-16-16-16-16-18-18-18-18-18-18-18-18-18-18-18-18-18-18-18-18--|
E|--14-14-14-14-14-14-14-14-14-14-14-14-14-14-14-14-14-16-16-16-16-16-16-16-16-16-16-16-16-16-16-16-16--|


That's all it is
Добавлено: 16.05.2014
Другие материалы по этой песне:
  • Аккорды и текст

Страница создана 16.05.2014
http://primanota.ru/ought/today-more-than-any-other-day-chords.htm
Привет, Гость.
Предлагаем пройти революционный курс по гитаре.
Подарок от PrimaNota.Ru, забирай!