PrimaNota.ru - самый крупный в мире бесплатный архив песенных текстов, аккордов, табулатур и нот


Ought - Pleasant Heart - бас-таба, видео

Регистрация Запомнить меня
Войти через:  Facebook Google Twitter Vk Yandex Mail.ru

Ought - Pleasant Heart - бас-таба, видео

Печатать
Просмотров: 76
Уроки эстрадного вокала в Санкт-Петербурге
Авторы: Ought

-------------------------------------------------------------------------------
                             PLEASANT HEART - Ought
-------------------------------------------------------------------------------
Tabbed by: CLMP
E-mail: 

Tuning: Standard

The intro is

G|--------------|
D|--------------|
A|--------------|
E|-12-12--------|

on the beat
then

G|--------------|
D|-------12-----|
A|--------------|
E|-12-12--------|
with the off-beat

The the whole song is composed of those two parts on repeat
(Part 1 with the instrumental and Part 2 during the singing)

Part 1
G|----------------------12h14---|
D|-----12---------12h14---------|
A|-------14-12------------------|
E|--12---------12---------------|

Part 2
G|------------12----------------|
D|----12--------14~-------------|
A|------14~-12------------------|
E|--12--------------------------|

And during the slow distorted part between 3:00 and 4:30 he goes like this

G|-----12~----------------12~----------------------12~---------|
D|----------------------------12-12/14-------------------------|
A|----------------------------------------------------12~------|
E|--12----------------12------------------------12-------------|

Enjoy :)

| /  slide up
| \  slide down
| h  hammer-on
| p  pull-off
| ~  vibrato
| +  harmonic
| x  Mute note
===============================================================================
Добавлено: 05.06.2016
Вам также может быть интересно:
Другие материалы по этой песне:
  • Аккорды и текст

Страница создана 05.06.2016
http://primanota.ru/ought/pleasant-heart-chords.htm
Привет, Гость.
Предлагаем пройти революционный курс по гитаре.
Подарок от PrimaNota.Ru, забирай!