PrimaNota.ru - самый крупный в мире бесплатный архив песенных текстов, аккордов, табулатур и нот


Ought - Habit - бас-таба, видео

Регистрация Запомнить меня
Войти через:  Facebook Google Twitter Vk Yandex Mail.ru

Ought - Habit - бас-таба, видео

Печатать
Просмотров: 133
Авторы: Ought

VERSE

G ----------------------9----9-------
D -5-5-5-------5/7-7-7h9--7h9--7h9---
A -------5-5-5-----------------------
E -----------------------------------

CHORUS

G -----------------------777---------
D -5-55-55--------7-77-77---99977----
A --------7-77-77--------------------  x2
E -----------------------------------

then
G -----------------------------------
D --------9-99-99-7-77-77---44444----
A -7-77-77---------------555---------  x2
E -----------------------------------


OUTRO

G --7--97---------------
D --------7-5-----------
A -------------5--75----
E -------------------5--

G -----------------------------------------------------------------------------------------
D -----------------------------------------------------------------------------------------
A -5----7-5----------5----7-5-------------5----7-5--5--------------5---7-5-----------------
E ---7-------5-3---0---7------5-3-0-5-3-0---7------7-7-5-3-035-3-0---7-----5-3-0305553030--

then
G -------------------------------
D -----------------7775--5-7775--
A -555-----7775--5------7-7------  x8
E ----77777-----7-7--------------

Structure of the song is
VERSE x7 (3 times for the intro then 4 times for the first verse)
CHORUS
VERSE x4
CHORUS
VERSE x4
CHORUS
OUTRO

Enjoy :)
Добавлено: 11.06.2015
Другие материалы по этой песне:
  • Аккорды и текст

Страница создана 11.06.2015
http://primanota.ru/ought/habit-chords.htm
Привет, Гость.
Предлагаем пройти революционный курс по гитаре.
Подарок от PrimaNota.Ru, забирай!