PrimaNota.ru - самый крупный в мире бесплатный архив песенных текстов, аккордов, табулатур и нот


Ought - Forgiveness - бас-таба, видео

Регистрация Запомнить меня
Войти через:  Facebook Google Twitter Vk Yandex Mail.ru

Ought - Forgiveness - бас-таба, видео

Печатать
Просмотров: 47
Авторы: Ought

-------------------------------------------------------------------------------
                             FORGIVENESS - Ought
-------------------------------------------------------------------------------
Tabbed by: CLMP
E-mail: 

Tuning: Standard

Bass starts at 1:39

G|---------------------------------------------------------------------------|
D|---------------------------------------------------------------------------|
A|------5----5--------------5----5--------------5----5--------------5----5---|
E|-5--------------5----5--------------5----5--------------5----5-------------|

G|---------------------------------------------------------------------------|
D|-------------------------------------------------5--------5----------------|
A|-----------5----5--------------5----5--------------5--------5--------------|
E|-5----5--------------5----5--------------5----5------5--------5----5----5--|

G|---------------------------------------------------------------------------|
D|---------------------------------------------------------------------------|
A|------5----5---------------5----5--------------5----5----------------------|
E|-5--------------55----5--------------5----5--------------5----5----5----5--|

G|--------------------------------------------------------------|
D|--------------------------------------------------------------|
A|--------------------------------------------------------------|
E|-5----5------------5----5------------5----5------------5~-----|

Enjoy :)

| /  slide up
| \  slide down
| h  hammer-on
| p  pull-off
| ~  vibrato
| +  harmonic
| x  Mute note
===============================================================================
Добавлено: 05.06.2016
Другие материалы по этой песне:
  • Аккорды и текст

Страница создана 05.06.2016
http://primanota.ru/ought/forgiveness-chords.htm
Привет, Гость.
Предлагаем пройти революционный курс по гитаре.
Подарок от PrimaNota.Ru, забирай!