PrimaNota.ru - самый крупный в мире бесплатный архив песенных текстов, аккордов, табулатур и нот


Ought - Clarity - бас-таба, видео

Регистрация Запомнить меня
Войти через:  Facebook Google Twitter Vk Yandex Mail.ru

Ought - Clarity - бас-таба, видео

Печатать
Просмотров: 51
Авторы: Ought

-------------------------------------------------------------------------------
                             CLARITY! - Ought
-------------------------------------------------------------------------------
Tabbed by: CLMP

Tuning: Standard EADG

G|------------------|
D|------------------| x4
A|------------------|
E|-5-5-555-5-5-555--|

G|------------------|
D|-7-7-777-7-7-777--| x 10
A|------------------|
E|------------------|

G|---------5-5-555-------------------|
D|-7-7-777---------7-7-777-5-5-5-44--| x 15
A|-----------------------------------|
E|-----------------------------------|

G|---------------5-5-5-------------------|
D|-7-7-7-7-5h7-7----7-7-7-7-77-----------| x5
A|------------------------------5555444--|
E|---------------------------------------|

G|----------------------------5555--|
D|---45554---45554---45554---4------| x4
A|----------------------------------|
E|-5-------5-------5-------5--------|

G|---------------5-5-5-------------------|
D|-7-7-7-7-5h7-7----7-7-7-7-77-----------| x6
A|------------------------------5555444--|
E|---------------------------------------|

G|----------------------------5555--|
D|---45554---45554---45554---4------| x4
A|----------------------------------|
E|-5-------5-------5-------5--------|

BRIDGE

G|--------------------------------------------------|
D|-7~--7-------5~--5--------7~--7-------5~--5-------|
A|-------4~--4-------5~--5--------4~--4-------5~--5-|
E|--------------------------------------------------|

then he alternates those two parts like that

B1 x3
G|---------------------------------|
D|-7-7-777---------5-5-555---------|
A|---------4-4-444---------5-5-555-|
E|---------------------------------|

B2 x2
G|---------------------------------|
D|-----------------5-5-555---------|
A|---------4-4-444---------5-5-555-|
E|-5-5-555-------------------------|

B1 B2 B1 B1 B2 B2 B1 B1 B2 B1

OUTRO

G|-----------------------------------------------------------------|
D|-7-7-----5-5-----7-7-----5-5-------------5-5-------------5-5-----| x2
A|-----4-4-----5-5-----4-4-----5-5-----4-4-----5-5-----4-4-----5-5-|
E|---------------------------------5-5-------------5-5-------------|

G|---------|
D|-7-7-7-7-|
A|---------|
E|---------|

ENJOY :)

| /  slide up
| \  slide down
| h  hammer-on
| p  pull-off
| ~  vibrato
| +  harmonic
| x  Mute note
===============================================================================
Добавлено: 07.05.2016
Другие материалы по этой песне:
  • Аккорды и текст

Страница создана 07.05.2016
http://primanota.ru/ought/clarity-chords.htm
Привет, Гость.
Предлагаем пройти революционный курс по гитаре.
Подарок от PrimaNota.Ru, забирай!