PrimaNota.ru - самый крупный в мире бесплатный архив песенных текстов, аккордов, табулатур и нот


Ought - Beautiful Blue Sky - бас-таба, видео

Регистрация Запомнить меня
Войти через:  Facebook Google Twitter Vk Yandex Mail.ru

Ought - Beautiful Blue Sky - бас-таба, видео

Печатать
Просмотров: 66
Уроки эстрадного вокала в Санкт-Петербурге
-------------------------------------------------------------------------------
                             BEAUTIFUL BLUE SKY - Ought
-------------------------------------------------------------------------------
Tabbed by: CLMP
Tuning: Standard

Pretty simple song but so effective

Basically this part is played again & again

G|-5---5---5---5---5---5---5---5---/11-----11-----11-----11-----11----11----11----11-----|
D|--7---7---7---7---7---7---7---7-----12-----12-----12-----12-----12----12----12----12---|
A|---7---7---7---7---7---7---7---7------12-----12-----12-----12-----12----12----12----0--|
E|---------------------------------------------------------------------------------------|

Then around 3:54 he goes something like this

G|----------12-------11-------11-------------------12--12-----12--12---------|
D|-------------10h12----10h12----10h12-10-10-12/14---14--14\12--12-----------|
A|---------------------------------------------------------------------------|
E|-10-10-10------------------------------------------------------------------|

Until all instruments except the drums stop, and then back to the first part

Enjoy :)


| /  slide up
| \  slide down
| h  hammer-on
| p  pull-off
| ~  vibrato
| +  harmonic
| x  Mute note
===============================================================================
Добавлено: 07.05.2016
Другие материалы по этой песне:
  • Аккорды и текст

Страница создана 07.05.2016
http://primanota.ru/ought/beautiful-blue-sky-chords.htm
Привет, Гость.
Предлагаем пройти революционный курс по гитаре.
Подарок от PrimaNota.Ru, забирай!