PrimaNota.ru - самый крупный в мире бесплатный архив песенных текстов, аккордов, табулатур и нот


Ought - Around Again - таба, бас-таба, видео

Регистрация Запомнить меня
Войти через:  Facebook Google Twitter Vk Yandex Mail.ru

Ought - Around Again - таба, бас-таба, видео

Печатать
Просмотров: 123
Авторы: Ought

-------------------------------------------------------------------------------
                          Around Again - Ought
-------------------------------------------------------------------------------

Tuning: Standard

Part 1:

e|---------------------------------------------------------------------------|
B|---------------------------------------------------------------------------|
G|---------------------------------------------------------------------------|
D|---------------------------------------------------------------------------|
A|--13------15--13------15--13------18--13------18---------------------------|  3x
E|------13----------13----------13----------13-------------------------------|

you can also play this riff as

e|---------------------------------------------------------------------------|
B|---------------------------------------------------------------------------|
G|---------------------------------------------------------------------------|
D|---------------------------------------------------------------------------|
A|----------15-----------15------------18----------18------------------------| 
E|--18--13-------18--13--------18--13------18--13----------------------------|


Verse 1:

e|---------------------------------------------------------------------------|
B|---------------------------------------------------------------------------|
G|---------------------------------------------------------------------------|
D|---------------------------------------------------------------------------|
A|--13------15--13------15--13------18--13------18---------------------------|  
E|------13----------13----------13----------13-------------------------------|

e|---------------------------------------------------------------------------|
B|---------------------------------------------------------------------------|
G|--2-2-2/14-14-14--2-2-2/14-14-14--2-2-2/14-14-14-17-17-17-14-14-14---------|
D|--0-0-0/0--0--0---0-0-0/0--0--0---0-0-0/0--0--0--0--0--0--0--0--0----------|
A|---------------------------------------------------------------------------|  2x
E|---------------------------------------------------------------------------|

e|---------------------------------------------------------------------------|
B|---------------------------------------------------------------------------|
G|---------------------------------------------------------------------------|
D|---------------------------------------------------------------------------|
A|--13-----13------13--------------------------------------------------------|
E|-----13------13------13----------------------------------------------------|

Verse 2:

e|---------------------------------------------------------------------------|
B|---------------------------------------------------------------------------|
G|---------------------------------------------------------------------------|
D|---------------------------------------------------------------------------|
A|--13------15--13------15--13------18--13------18---------------------------|  2x
E|------13----------13----------13----------13-------------------------------|

e|---------------------------------------------------------------------------|
B|---------------------------------------------------------------------------|
G|--2-2-2/14-14-14--2-2-2/14-14-14--2-2-2/14-14-14-17-17-17-14-14-14---------|
D|--0-0-0/0--0--0---0-0-0/0--0--0---0-0-0/0--0--0--0--0--0--0--0--0----------|
A|---------------------------------------------------------------------------|  2x
E|---------------------------------------------------------------------------|

e|---------------------------------------------------------------------------|
B|---------------------------------------------------------------------------|
G|---------------------------------------------------------------------------|
D|---------------------------------------------------------------------------|
A|--13-----13------13--------------------------------------------------------|
E|-----13------13------13----------------------------------------------------|

Verse 3:

e|---------------------------------------------------------------------------|
B|---------------------------------------------------------------------------|
G|---------------------------------------------------------------------------|
D|---------------------------------------------------------------------------|
A|--13------15--13------15--13------18--13------18---------------------------|  2x
E|------13----------13----------13----------13-------------------------------|

Guitar Break

Verse 4:

e|---------------------------------------------------------------------------|
B|---------------------------------------------------------------------------|
G|---------------------------------------------------------------------------|
D|---------------------------------------------------------------------------|
A|--13------15--13------15--13------18--13------18---------------------------|  
E|------13----------13----------13----------13-------------------------------|

e|---------------------------------------------------------------------------|
B|---------------------------------------------------------------------------|
G|--2-2-2/14-14-14--2-2-2/14-14-14--2-2-2/14-14-14-17-17-17-14-14-14---------|
D|--0-0-0/0--0--0---0-0-0/0--0--0---0-0-0/0--0--0--0--0--0--0--0--0----------|
A|---------------------------------------------------------------------------|  2x
E|---------------------------------------------------------------------------|

Verse 5:

Really no clue what goes here, I just play this, it's only okay but it's the best I could do

e|---------------------------------------------------------------------------|
B|---------------------------------------------------------------------------|
G|---------------------------------------------------------------------------|
D|---------------------------------------------------------------------------|
A|--13-13-13-13-13--15-15-15-15-15--18-18-18-18-18--20-20-20-20-20-----------|
E|--13-13-13-13-13--15-15-15-15-15--18-18-18-18-18--20-20-20-20-20-----------|

"Go slow" part:  these are 13's not 1s and 3s

e|---------------------------------------------------------------------------|
B|---------------------------------------------------------------------------|
G|---------------------------------------------------------------------------|
D|---------------------------------------------------------------------------|
A|--13----------------13----------------13----------------13-----------------|  2x
E|------131313131313------131313131313------131313131313------131313131313---|


Instrument Break

"Intermission" part:

e|-------------------17------------------17---------------------------------17-|
B|---------13--------------------13--------------------13---------13-----------|
G|--15-15------15-15------15-15------15------15-15-15------15-15------15-15----|
D|-----------------------------------------------------------------------------|
A|-----------------------------------------------------------------------------|
E|-----------------------------------------------------------------------------|

e|----------------17-------11--------------11-------11-------11-----------11-----|
B|---------13------------------------7----------------------------7--------------|
G|--15-15------15------9-9------9-9-----9-9------9-9------9-9---------9-9----9-9-|
D|-------------------------------------------------------------------------------|
A|-------------------------------------------------------------------------------|
E|-------------------------------------------------------------------------------|

e|----------11-------11-------11---------------------------------------------|
B|--7-----------------------------7--7-7-7-7---------------------------------|
G|-----9-9------9-9------9-9-------------------------------------------------|
D|---------------------------------------------------------------------------|
A|---------------------------------------------------------------------------|
E|---------------------------------------------------------------------------|

Repeat till the end (you don't have to play it exactly this way, play around with it)
Добавлено: 11.06.2015
Другие материалы по этой песне:
  • Аккорды и текст

Страница создана 11.06.2015
http://primanota.ru/ought/around-again-chords.htm
Привет, Гость.
Предлагаем пройти революционный курс по гитаре.
Подарок от PrimaNota.Ru, забирай!