PrimaNota.ru - самый крупный в мире бесплатный архив песенных текстов, аккордов, табулатур и нот


Otto Ohm - Oro Nero - аккорды и текст, таба, видео

Регистрация Запомнить меня
Войти через:  Facebook Google Twitter Vk Yandex Mail.ru

Otto Ohm - Oro Nero - аккорды и текст, таба, видео

Печатать
Просмотров: 151
Уроки эстрадного вокала в Санкт-Петербурге
Oro Nero
Otto Ohm
		   --------

OTTOOHM

ORO NERO



INTRO: Db-7   Ab-6   X 4

|------------------------------------------------------------------|
|------5----------------------------5-----------------------------|
|---------4----------4-----------------4--------------4----------|
|-------------6---------6----4h6---------6--------6----6-------|
|-\4-----------4h6-------6------------------4h6-----------6----|
|------------------------------------------------------------------|

(è probabile che utilizzino l'accordatura ½ tono più bassa e quindi verrebbe
fuori cosi:  )

|----1------------------------------1-----------------------------|
|-------1-----------1------------------2---------------1----------|
|----------2-----------2------0h2--------2---------2-----2------|
|-\0----------0h2---------2------------------0h2----------------|
|------------------------------------------------------------------|
|------------------------------------------------------------------|



Db-7               Ab-6             Db-7   Ab-6   (sempre)

C'è una nuova luna stasera  aaaaaa

Con un filo di voce cerco di cantarla

Sono io l'uomo con la valigia

Sempre pronto a partire sempre con la guardia alta

   Gb-7                              Ab-7                   Db-7 Ab-6    Db-7   Ab-6

E scrivo a fondo per vedere se è più profondo di questi occhi tuoi

   Gb-7                              Ab-7                              Db-7 Ab-6    Db-7   Ab-6

E cercherò risposte che di certo non sapresti darmi mai

A                                   B

Quando ami per davvero non ti basterà il futuro

Db-                     A          B

Vuoi soltanto avere lei che vale più dell'oro nero

A                                   B

Vuoi svegliarti la mattina respirare il suo cuscino

Db-                     A          B

Fisso sul soffitto e dire piano è tutto vero è tutto vero

Db-7               Ab-6             Db-7   Ab-6   (sempre)

C'è una nuova luna stasera

Con un filo di musica cerco di offuscarla

E filtrare la luce cattiva

Liberare la mente da ogni forma perversa

   Gb-7 Ab-7   Db-7     Ab-6    Db-7   Ab-6

Nei piccoli progressi della casa scaccerò le nostalgie

   Gb-7 Ab-7   Db-7     Ab-6    Db-7   Ab-6

Eviterò le stupide allusioni tra le nostre gelosie

A                                   B

Quando ami per davvero basta poco per sognare

Db-                     A          B

Vuoi soltanto avere lei che vale più dell'oro nero

A                                   B

Vuoi svegliarti la mattina respirare il suo cuscino

Db-                     A          B

Fisso sul soffitto e dire piano è tutto vero è tutto vero

A                                   B

Quando ami per davvero non ti basterà il futuro

Db-                     A          B

Vuoi soltanto avere lei che vale più dell'oro nero

A                                   B

Vuoi svegliarti la mattina respirare il suo cuscino

Db-                     A          B

Fisso sul soffitto e dire piano è tutto vero è tutto vero

Db

È tutto neroooooooooooooooooooo  quest'oro nerooooooooooo

     
Добавлено: 27.06.2013
Другие материалы по этой песне:
  • Аккорды и текст

Страница создана 27.06.2013
http://primanota.ru/otto-ohm/oro-nero-chords.htm
Привет, Гость.
Предлагаем пройти революционный курс по гитаре.
Подарок от PrimaNota.Ru, забирай!