PrimaNota.ru - самый крупный в мире бесплатный архив песенных текстов, аккордов, табулатур и нот


Ottmar Liebert - Road To Her - таба, видео

Регистрация Запомнить меня
Войти через:  Facebook Google Twitter Vk Yandex Mail.ru

Ottmar Liebert - Road To Her - таба, видео

Печатать
Просмотров: 122
This is one for seasoned players only!
Don't even try this one unless you can wrap your thumb over the top of the
guitar neck for chords like 1x3210 and 1x3213.
I can figure out the notes (roughly), but I haven't got a hope of being able
to play it!
Good luck....


Road To Her/Home (Bulerias)  - Ottmar Liebert
~~~~~~~~~~~~~~~~~~~~~~~~~~~
>From "Nouveau Flamenco".
Transcribed and tabbed by John Kean (keanj@agresearch.cri.nz).

t = tremolo
x = damp string
) = arpeggio
SLAP = slap guitar body

12/8 time.

     , . . , . . , . . , . .     , . . , . . , . . , . .
||--t4----t5----t0------------|-t4----t5----t0------------|
||---------5-----------5------|--------5-----------5------|
||*------6---6-------6---6----|------6---6-------6---6----|
||*----7-------7---7-------7--|----7-------7---7-------7--|
||---0-----------0------------|--0-----------0------------|
||----------------------------|---------------------------|


   , . . , . .  , . . , . .     , . . , . .  , . . , . .  x3
|-t0-----------)3------------|-t0-----------)3------------||
|--------1-----)1-------S----|--------1-----)1-------S----||
|------2---2---)2-------L----|------2---2---)2-------L---*||
|----3-------3-)3-------A----|----3-------3-)3-------A---*||
|--------------)x-------P----|--------------)x-------P----||
|--1-----------)1------------|--1-----------)1------------||


     , . . , . . , . . , . .   x3
||--t0-------------------------||
||---------1-----------3-------||
||*------2---2-------4---4----*||
||*----2-------2---4-------4--*||
||---0-----------0-------------||
||-----------------------------||


     , . . , . . , . . , . .     , . . , . . , . . , . .
||--t4----t5----t0------------|-t4----t5----t0------------|
||---------5-----------5------|--------5-----------5------|
||*------6---6-------6---6----|------6---6-------6---6----|
||*----7-------7---7-------7--|----7-------7---7-------7--|
||---0-----------0------------|--0-----------0------------|
||----------------------------|---------------------------|


   , . . , . .  , . . , . .     , . . , . .  , . . , . .  x3
|-t0-----------)3------------|-t0-----------)3------------||
|--------1-----)1-------S----|--------1-----)1-------S----||
|------2---2---)2-------L----|------2---2---)2-------L---*||
|----3-------3-)3-------A----|----3-------3-)3-------A---*||
|--------------)x-------P----|--------------)x-------P----||
|--1-----------)1------------|--1-----------)1------------||


     , . . , . . , . . , . .   x3
||--t0-------------------------||
||---------1-----------3-------||
||*------2---2-------4---4----*||
||*----2-------2---4-------4--*||
||---0-----------0-------------||
||-----------------------------||


     , . . , . . , . . , . .   x3
||--t0-------------------------||
||---------5-----------3-------||
||*------5---5-------4---4----*||
||*----7-------7---4-------4--*||
||---0-----------0-------------||
||-----------------------------||


    ,  .  .  ,  .  .  ,  .  .  ,  .  .
||---------)-9--x---------)10--x---------|
||---------)10--x---------)10--x---------|
||*--------)-9--x---------)11--x---------|
||*------11-----x-------12-----x---------|
||--0-----------x-----0--------x---------|
||---------------------------------------|


   ,  .  .  ,  .  .  ,  .  .  ,  .  .   x3
|----------)7--x---------)-9--x---------||
|----------)8--x---------)10--x---------||
|----------)7--x---------)-9--x--------*||
|--------9-----x-------11-----x--------*||
|--0-----------x-----0--------x---------||
|---------------------------------------||


     , . . , . . , . . , . .     , . . , . . , . . , . .   x3
||--t7----------t5------------|-t4----t5-------------------||
||---------8-----------6------|--------5-----------5-------||
||*------9---9-------7---7----|------6---6-------6---6----*||
||*---10------10---8-------8--|----7-------7---7-------7--*||
||---0-----------0------------|--0-----------0-------------||
||----------------------------|----------------------------||


    , . . , . . , . . , . .   , . . , . . , . . , . .  x3
||--------0---x-------------|-------0---x--------------||
||--------3---x-------------|-------5---x--------------||
||*-------0---x-------------|-------4---x-------------*||
||*-----2-----x-------------|-----2-----x-------------*||
||--0---------x-------------|-0---------x--------------||
||--------------------------|--------------------------||


     ,   .   .   ,   .   .   ,   .    .   ,   .   .
||--)4---4-4-4-4-4---4-4-4-4-4---4-4-)5---5-5-5---5-5-|
||--)5---5-5-5-5-5---5-5-5-5-5---5-5-)5---5-5-5---5-5-|
||*-)6---6---6---6---6---6---6---6---)6---6---6---6---|
||*-)7-----------7-----------7-------)7-------7-------|
||--)0-----------0-----------0-------)0-------0-------|
||----------------------------------------------------|
  (strum)

   ,   .   .   ,   .   .   ,   .    .   ,   .   .
|-)4---4-4-4-4-4---4-4-4-4-4---4-4-)5---5-5-5---5-5-|
|-)5---5-5-5-5-5---5-5-5-5-5---5-5-)5---5-5-5---5-5-|
|-)6---6---6---6---6---6---6---6---)6---6---6---6---|
|-)7-----------7-----------7-------)7-------7-------|
|-)0-----------0-----------0-------)0-------0-------|
|---------------------------------------------------|


   ,   .   .   ,   .   .   ,   .    .   ,   .   .
|-)2---2-2-2-2-2---2-2-2-2-2---2-2-)3---3-3-3---3-3-|
|-)3---3-3-3-3-3---3-3-3-3-3---3-3-)3---3-3-3---3-3-|
|-)4---4---4---4---4---4---4---4---)4---4---4---4---|
|-)5-----------5-----------5-------)5-------5-------|
|-)x-----------x-----------x-------)x-------x-------|
|-)3-----------3-----------3-------)3-------3-------|


   ,   .   .   ,   .   .   ,   .    .   ,   .   .    x4
|-)2---2-2-2-2-2---2-2-2-2-2---2-2-)3---3-3-3---3-3--||
|-)3---3-3-3-3-3---3-3-3-3-3---3-3-)3---3-3-3---3-3--||
|-)4---4---4---4---4---4---4---4---)4---4---4---4---*||
|-)5-----------5-----------5-------)5-------5-------*||
|-)x-----------x-----------x-------)x-------x--------||
|-)3-----------3-----------3-------)3-------3--------||


    ,   .   .   ,   .   .   ,   .    .   ,   .   .
||-)0---0-0-0-0-0---0-0-0-0-0---0-0-)1---1-1-1---1-1-|
||-)1---1-1-1-1-1---1-1-1-1-1---1-1-)1---1-1-1---1-1-|
||-)2---2---2---2---2---2---2---2---)2---2---2---2---|
||-)3-----------3-----------3-------)3-------3-------|
||-)x-----------x-----------x-------)x-------x-------|
||-)1-----------1-----------1-------)1-------1-------|


   ,   .   .   ,   .   .   ,   .    .   ,   .   .
|-)0---0-0-0-0-0---0-0-0-0-0---0-0-)1---1-1-1---1-1-|
|-)1---1-1-1-1-1---1-1-1-1-1---1-1-)1---1-1-1---1-1-|
|-)2---2---2---2---2---2---2---2---)2---2---2---2---|
|-)3-----------3-----------3-------)3-------3-------|
|-)x-----------x-----------x-------)x-------x-------|
|-)1-----------1-----------1-------)1-------1-------|


   ,   .   .    ,   .   .    ,   .    .   ,   .   .
|-)0---0-0-0-0-)0---0-0-0-0-)0-----------------------||
|-)1---1-1-1-1-)2---2-2-2-2-)2-----------------------||
|-)0---0---0---)2---2---2---)2-----------------------||
|-)2-----------)2-----------)2-----------------------||
|-)3-----------)0-----------)0-----------------------||
|----------------------------------------------------||


     , . . , . . , . . , . .
||--t4----t5----t0-------------||
||---------5-----------5-------||
||*------6---6-------6---6----*|| Repeat
||*----7-------7---7-------7--*|| & fade
||---0-----------0-------------||
||-----------------------------||
Добавлено: 21.02.2012
Другие материалы по этой песне:
  • Аккорды и текст

Страница создана 21.02.2012
http://primanota.ru/ottmar-liebert/road-to-her-chords.htm
Привет, Гость.
Предлагаем пройти революционный курс по гитаре.
Подарок от PrimaNota.Ru, забирай!