PrimaNota.ru - самый крупный в мире бесплатный архив песенных текстов, аккордов, табулатур и нот


Ottmar Liebert - August Moon - таба, видео

Регистрация Запомнить меня
Войти через:  Facebook Google Twitter Vk Yandex Mail.ru

Ottmar Liebert - August Moon - таба, видео

Печатать
Просмотров: 251
                        Ottmar Liebert – August Moon

  Intro: Am, E7, Am

  This is the solo to the keyboard…
                                                     E7
e|----12-13-15--12-13-12—10-12-13-12-13—-10-12-13-13h1212--|
B|--10-----------------------------------------------------|
G|---------------------------------------------------------|
D|---------------------------------------------------------|
A|---------------------------------------------------------|
E|---------------------------------------------------------|

                                                Am
e|----12-13-15--12-13-12-10-12-13-12-13—-8-10-8--------10-8-----|
B|--10------------------------------------------10----------10--|
G|--------------------------------------------------------------|
D|--------------------------------------------------------------|
A|--------------------------------------------------------------|
E|--------------------------------------------------------------|

                    E7                              Am
e|--8-5--7-8-10-8-7----8-5--7-8-10-8-7-----7-8-10-8-5--|
B|------------------5------------------5---------------|
G|-----------------------------------------------------|
D|-----------------------------------------------------|
A|-----------------------------------------------------|
E|-----------------------------------------------------|

                    E7                                  Am
e|--8-5--7-8-10-8-7----8-5--7-8-10-8-7-----7-8-10/12-10-5--|
B|------------------5------------------5-------------------|
G|---------------------------------------------------------|
D|---------------------------------------------------------|
A|---------------------------------------------------------|
E|---------------------------------------------------------|

                            E7                                         Am
e|--12-12-12-10-10-8---10-10-10-8-8-7-10---12-12-12-10-10-8-7-8-10-8-7-5--|
B|------------------------------------------------------------------------|
G|------------------------------------------------------------------------|
D|------------------------------------------------------------------------|
A|------------------------------------------------------------------------|
E|------------------------------------------------------------------------|

                              E7                                         Am
e|--12-12-12-10-10-8-5---10-10-10-8-8-7-10---12-12-12-10-10-8-7-8-10-8-7-5-|
B|-------------------------------------------------------------------------|
G|-------------------------------------------------------------------------|
D|-------------------------------------------------------------------------|
A|-------------------------------------------------------------------------|
E|-------------------------------------------------------------------------|

                    E7                         Am
e|--8-5--7-8-10-8-7----7-8-10-8-7-----7-8-10-8-5--|
B|------------------5-------------5---------------|
G|------------------------------------------------|
D|------------------------------------------------|
A|------------------------------------------------|
E|------------------------------------------------|

                    E7                             Am
e|--8-5--7-8-10-8-7----7-8-10-8-7-----7-8-10/12-10-5--|
B|------------------5-------------5-------------------|
G|----------------------------------------------------|
D|----------------------------------------------------|
A|----------------------------------------------------|
E|----------------------------------------------------|

                  E7                                    Am         Dm
e|--8-7-8-10-8-7--5-7-8-10-7----7-8-10-12-10-8--7-8-7-8-5--|
B|---------------------------------------------------------|
G|---------------------------------------------------------|
D|---------------------------------------------------------|
A|---------------------------------------------------------|
E|---------------------------------------------------------|

              Am           E7                Am
e|--12-10-8-7-8---10-8-7-5-7---7-8-10---8-10-12--|
B|-----------------------------------------------|
G|-----------------------------------------------|
D|-----------------------------------------------|
A|-----------------------------------------------|
E|-----------------------------------------------|

           Dm            Am          E7                  Am
e|--5-8-12-10--12-10-8-7-8---10-8-7-5-7---7-8-10---8-10-12--|
B|----------------------------------------------------------|
G|----------------------------------------------------------|
D|----------------------------------------------------------|
A|----------------------------------------------------------|
E|----------------------------------------------------------|

           Dm            Am          E7                  Am
e|--5-8-12-10--12-10-8-7-8---10-8-7-5-7---7-8-10---8-10-12--|
B|----------------------------------------------------------|
G|----------------------------------------------------------|
D|----------------------------------------------------------|
A|----------------------------------------------------------|
E|----------------------------------------------------------|

           Dm            Am          E7            Am
e|--5-8-12-10--12-10-8-7-8---10-8-7-5-7---7-8-10---7-8-5--|
B|--------------------------------------------------------|
G|--------------------------------------------------------|
D|--------------------------------------------------------|
A|--------------------------------------------------------|
E|--------------------------------------------------------|

Am, E, Am...
                         E                     Am
e|-------------------------------------------------|
B|---9-15-17-17-14-17-15-12---9-12-15-12-15-13-10--|
G|--9------------------------9---------------------|
D|-------------------------------------------------|
A|-------------------------------------------------|
E|-------------------------------------------------|

                         E                     Am
e|-------------------------------------------------|
B|---9-15-17-17-14-17-15-12---9-12-15-15-13-12-10--|
G|--9------------------------9---------------------|
D|-------------------------------------------------|
A|-------------------------------------------------|
E|-------------------------------------------------|

                                                    E
e|------------------------------------------------------|
B|-----17-18-19--17-18-17--15-17-18-17-18--15-17-18-17--|
G|--14--------------------------------------------------|
D|------------------------------------------------------|
A|------------------------------------------------------|
E|------------------------------------------------------|

                                                               Am
e|-----------------------------------------------------------------|
B|-----17-18-19--17-18-17--15-17-18-17-18--13-15-13-10---15-13-10--|
G|--14-------------------------------------------------------------|
D|-----------------------------------------------------------------|
A|-----------------------------------------------------------------|
E|-----------------------------------------------------------------|

____________________________________________________________________________

 This solo for the keyboard is optional… If you prefer to play this part It's OK, but, 
sound isn't the same. Well, personally I prefer the first.

                                                E
e|----12-13-14--12-13-12—--10-12-13-12-13—-10-12-13-12--|
B|--10--------------------------------------------------|
G|------------------------------------------------------|
D|------------------------------------------------------|
A|------------------------------------------------------|
E|------------------------------------------------------|

                                                                 Am
e|----12-13-14--12-13-12—--10-12-13-12-13—-8-10-8--------10-8-10-----|
B|--10--------------------------------------------10-------------10--|
G|-------------------------------------------------------------------|
D|-------------------------------------------------------------------|
A|-------------------------------------------------------------------|
E|-------------------------------------------------------------------|

___________________________________________________________________________


                    E7                            Am
e|--8-5--7-8-10-8-7----7-8-10/12--10-8-7-8-10-8-7-5--|
B|------------------5--------------------------------|
G|---------------------------------------------------|
D|---------------------------------------------------|
A|---------------------------------------------------|
E|---------------------------------------------------|

                        E7                         Am
e|--87-8--5--7-8-10-8-7----7-8-10-8-7-----7-8-10-8-5--|
B|----------------------5-------------5---------------|
G|----------------------------------------------------|
D|----------------------------------------------------|
A|----------------------------------------------------|
E|----------------------------------------------------|

                              E7                                         Am
e|--12-12-12-10-10-8-5---10-10-10-8-8-7-10---12-12-12-10-10-8-7-8-10-8-7-5-|
B|-------------------------------------------------------------------------|
G|-------------------------------------------------------------------------|
D|-------------------------------------------------------------------------|
A|-------------------------------------------------------------------------|
E|-------------------------------------------------------------------------|


                          E7                              Am
e|--7-8-7-8-7-8--7-8-10-8-7---7-8-7-8-10-12-10-8—7-8-7-10-5--|
B|-----------------------------------------------------------|
G|-----------------------------------------------------------|
D|-----------------------------------------------------------|
A|-----------------------------------------------------------|
E|-----------------------------------------------------------|

    Dm            Am           E7                Am
e|--10--12-10-8-7-8---10-8-7-5-7---7-8-10---8-10-12--|
B|---------------------------------------------------|
G|---------------------------------------------------|
D|---------------------------------------------------|
A|---------------------------------------------------|
E|---------------------------------------------------|

           Dm            Am          E7                 Am
e|--5-8-12-10--12-10-8-7-8---10-8-7-5-7---7-8-10---8-10-12--|
B|----------------------------------------------------------|
G|----------------------------------------------------------|
D|----------------------------------------------------------|
A|----------------------------------------------------------|
E|----------------------------------------------------------|

           Dm            Am          E7                  Am
e|--5-8-12-10--12-10-8-7-8---10-8-7-5-7---7-8-10---8-10-121212--|
B|--------------------------------------------------------------|
G|--------------------------------------------------------------|
D|--------------------------------------------------------------|
A|--------------------------------------------------------------|
E|--------------------------------------------------------------|


           Dm            Am           E7
e|--5-8-12-10--12-10-8-7-8---10-8-7-5-7---7-8-10---8-10--|
B|-------------------------------------------------------|
G|-------------------------------------------------------|
D|-------------------------------------------------------|
A|-------------------------------------------------------|
E|-------------------------------------------------------|

    Am                   Dm               Am                   E7
e|--12121212121212121212-1313131313131313-141414141414-1212121212121212--|
B|-----------------------------------------------------------------------|
G|-----------------------------------------------------------------------|
D|-----------------------------------------------------------------------|
A|-----------------------------------------------------------------------|
E|-----------------------------------------------------------------------|

     Am           Dm             Am        E7           Am
e|--131313131313—10101010101010-888888888-101010101010-1212121212121212-|...
B|----------------------------------------------------------------------|
G|----------------------------------------------------------------------|
D|----------------------------------------------------------------------|
A|----------------------------------------------------------------------|
E|----------------------------------------------------------------------|

 Hi everybody! My name is Adrián González Jiménez from Oaxaca City, & this is my tab of 
song, it's very well, believe me…

 Play this tab! ‘Cause it's worth trying for. Ok if you want to write me your view about 
tab, this is my e-mail: Imordeglo@hotmail.com
Добавлено: 28.06.2012
Другие материалы по этой песне:
  • Аккорды и текст

Страница создана 28.06.2012
http://primanota.ru/ottmar-liebert/august-moon-chords.htm
Привет, Гость.
Предлагаем пройти революционный курс по гитаре.
Подарок от PrimaNota.Ru, забирай!