PrimaNota.ru - самый крупный в мире бесплатный архив песенных текстов, аккордов, табулатур и нот


Otomo Yoshihide - Preach - аккорды и текст, видео

Регистрация Запомнить меня
Войти через:  Facebook Google Twitter Vk Yandex Mail.ru

Otomo Yoshihide - Preach - аккорды и текст, видео

Печатать
Просмотров: 62
Preach
Otomo Yoshihide
-------------------------------------------------------------------------------
                 PREACH - Otomo Yoshihide's New Jazz Ensemble 
-------------------------------------------------------------------------------
Tabbed: 2015-07-11

Album - Dreams (2002)
Arist - Otomo Yoshihide's New Jazz Ensemble

Credits
Double Bass - Mizutani Hiroaki
Drums, Trumpet, Percussion, Bodhrán - Yasuhiro Yoshigaki
Soprano Saxophone, Alto Saxophone - Tsugami Kenta
Soprano Saxophone, Tenor Saxophone - Naruyoshi Kikuchi
Synthesizer [DX7, SH-101], Effects, Noises [Hot Touch] - Tatsuki Masuko
Vocals - Jun Togawa


The tabbed sections are merely a suggestion of how to play the parts. It is important to avoid playing the
high e string and to play the lowest four strings of each barre chord.

Tuning: EADGBe

    D#m          Dm  D#m  A#
kodomo dakara to itte 
       D#m   Dm      D#m   A#                      
amai mono ga suki na wake janai 
   D#m               C#     B              
tada no ichibetsu de anata wo 
          G#m   A#   D#                     
sasu koto datte dekiru 

           G#m F#sus4/C# F# D#m                         
sonna koto wakatteru 
         G#m          F#sus4/C#  F#  D#m                 
tokku no mukashi kara shitteru 
       Bdim A#7 D#m                              
dakara tte dakara tte 

  D#m             Dm    D#m A#      D#m Dm  D#m A#                                
watashi no namida wa abura kurayami ni hikaru
D#m                   C#                                    
anisu shiido no youna 
B                                     
anisu shiido no youna 
G#m       A#          D#m (D#)                                   
ii nioi ga suru deshou 

         G#m F#sus4/C# F# D#m                                    
anata no kurubushi ni 
       G#m F#sus4/C# F# D#m                               
surikonde ageru saa 
    Bdim A#7     D#m                                       
ima sugu hizamazukinasai 

D#m Dm  (12 times)
D#m Dm D#m A#
D#m Dm D#m A#
D#m C# B B
G#m A# D#5

D#         G#m      F#sus4/C# F# F#7                           
watashi no namae wa yobanai de 
            G#m        F#sus4/C# F# D#m                          
saki ni anata no mono wo sashidashinasai 
     Bdim A#7 D#m D#             
damatte damatte
D#         G#m      F#sus4/C# F# D#m                           
watashi no namae wa yobanai de 
            G#m        F#sus4/C# F# D#m                          
saki ni anata no mono wo sashidashinasai 
     Bdim A#7 D#5              
damatte damatte

Bdim A#7 D#5
Bdim A#7 D#m


  F#sus4/C#     F#7      Bdim       A#7       D#m    
e|---------| |-------| |-------| |-------| |-------|
B|---------| |---2---| |---6---| |-------| |---7---|
G|----4----| |---3---| |---7---| |---7---| |---8---|
D|----4----| |---2---| |---9---| |---6---| |---8---|
A|----4----| |-------| |---8---| |-------| |---6---|
E|---------| |---2---| |-------| |---6---| |-------|


Intro
     *let ring
     |-------|             |-------|
e|---------------------|---------------9-7-6-----------|---------------------|
B|-------7---7-----6---|-------7---7---------9-7-6-----|-------7---7-----6---|
G|-------8---8-----7---|-------8---8---------------8---|-------8---8-----7---|
D|-----8-----------7---|-----8-------------------------|-----8-----------7---|
A|---6-----6-----5-----|---6-----6---------------------|---6-----------5-----|
E|---------------------|-------------------------------|---------------------|

                        [Lyrics begin]
e|---------------------|-------------------------------|---------------------|
B|-------7---7---6-----|-------7---7------6------------|-------7---7---------|
G|-------8---8---7-----|-------8---8------7------------|-------8---8---7-----|
D|-----8---------7-----|-----8---8--------7------------|-----8---------8-----|
A|---6-----------5-----|---6---------6--5--------------|---6-----6-----8-----|
E|---------------------|-------------------------------|---------------6-----|
                 ^

e|---------------------|-------------------------------|
B|-------7---7-----6---|--------7---7------------------|
G|-------8---8-----7---|--------8---8----7-------------|
D|-----8-----------7---|------8---8------8-------------|
A|---6-----------5-----|----6------------8-------------|
E|---------------------|--------------7--6-------------|


Ending (around 3:52)
    Bdim    A#7    D#m       Bdim    A#7    D#m  
e|---------------------------|------------------------11---|
B|-------6-----------7---7---|----------6------------11----|
G|-------7-----7-----8---8---|----------7-----7-----11-----|
D|-----9------6------8---8---|--------9------6-----13------|
A|---8-------------6---6-----|---6--8----------------------|
E|-----------6---------------|-------------6---------------|


****************************
|---|  Let ring
  ^    Rake
****************************
Добавлено: 01.01.2016
Другие материалы по этой песне:
  • Аккорды и текст

Страница создана 01.01.2016
http://primanota.ru/otomo-yoshihide/preach-chords.htm
Привет, Гость.
Предлагаем пройти революционный курс по гитаре.
Подарок от PrimaNota.Ru, забирай!