PrimaNota.ru - самый крупный в мире бесплатный архив песенных текстов, аккордов, табулатур и нот


Otis Redding - Lucille - текст песни, бас-таба, видео

Регистрация Запомнить меня
Войти через:  Facebook Google Twitter Vk Yandex Mail.ru

Otis Redding - Lucille - текст песни, бас-таба, видео

Печатать
Просмотров: 108
-------------------------------------------------------------------------------
                             Lucille - Otis Redding
-------------------------------------------------------------------------------
Tabbed by: Ari
E-mail: arizonadream137@hotmail.com

Album: Pain in my heart (1964)

Tuning: standard

Part I:
         X4                X2                X2                   
G|-------------2-2-|-------------5-5-|-------------2-2-|---------------7-7-|-------------5-5-|
D|-----2-2-5-5-----|-----5-5-8-8-----|-----2-2-5-5-----|-----7-7-10-10-----|-----5-5-8-8-----|
A|-3-3-------------|-6-6-------------|-3-3-------------|-8-8---------------|-6-6-------------|
E|-----------------|-----------------|-----------------|-------------------|-----------------|

G|-------------2-2-|-----------------|
D|-----2-2-5-5-----|---5-5-5-5-5-5-5-|
A|-3-3-------------|-3---------------|
E|-----------------|-----------------|

Part II:
         X4                X2                X2                   
G|-------------2-2-|-------------5-5-|-------------2-2-|---------------7-7-|-------------5-5-|
D|-----2-2-5-5-----|-----5-5-8-8-----|-----2-2-5-5-----|-----7-7-10-10-----|-----5-5-8-8-----|
A|-3-3-------------|-6-6-------------|-3-3-------------|-8-8---------------|-6-6-------------|
E|-----------------|-----------------|-----------------|-------------------|-----------------|

         X2
G|-------------2-2-|
D|-----2-2-5-5-----|
A|-3-3-------------|
E|-----------------|

Part III:
    X3                X2               X2                                                      X2  
G|-----|-----|-------------5-5-|-------------2-2-|---------------7-7-|-------------5-5-|-------------2-2-|
D|-----|-----|-----5-5-8-8-----|-----2-2-5-5-----|-----7-7-10-10-----|-----5-5-8-8-----|-----2-2-5-5-----|
A|-3-3-|-----|-6-6-------------|-3-3-------------|-8-8---------------|-6-6-------------|-3-3-------------|
E|-----|-----|-----------------|-----------------|-------------------|-----------------|-----------------|

Part IV:
         X4                X2                X2                   
G|-------------2-2-|-------------5-5-|-------------2-2-|---------------7-7-|-----|-------------2-2-|-----|
D|-----2-2-5-5-----|-----5-5-8-8-----|-----2-2-5-5-----|-----7-7-10-10-----|-----|-----2-2-5-5-----|-----|
A|-3-3-------------|-6-6-------------|-3-3-------------|-8-8---------------|-6---|-3-3-------------|-3---|
E|-----------------|-----------------|-----------------|-------------------|-----|-----------------|-----|

Part I
Part II
Part III
Part I
Part III
Part IV
===============================================================================
Добавлено: 26.10.2015
Другие материалы по этой песне:
  • Аккорды и текст

Страница создана 02.10.2013
http://primanota.ru/otis-redding/lucille-chords.htm
Привет, Гость.
Предлагаем пройти революционный курс по гитаре.
Подарок от PrimaNota.Ru, забирай!