PrimaNota.ru - самый крупный в мире бесплатный архив песенных текстов, аккордов, табулатур и нот


Otis Redding - Cant Turn You Loose - таба, видео

Регистрация Запомнить меня
Войти через:  Facebook Google Twitter Vk Yandex Mail.ru

Otis Redding - Cant Turn You Loose - таба, видео

Печатать
Просмотров: 110
Can't Turn You Loose - Otis Redding
===================================

I got this from the Blues Brothers 2000 soundtrack, so I don't have any
lyrics. On the CD, the band just improvises during the verses. I also put
the horns during the chorus and the bridge in TAB, just for the fun of
it...The verse is basicly a 12 bar in C, the chorus is simply C and the
bridge: either just C, or E5 / G5 But who would wanne play chords with a
riff like this...??

Enjoy !!

Sandro Michetti : windelpoons@hotmail.com
Screaming Cattle, No Cow G Bluesy, No Bull G Horny


symbols used:

+ : eigth rest
* : two quarter rest
% : repeat previous bar

1. Intro (after 2 bars of drums):

e---------------|---|---|---------------|
B---------------|---|---|---------------|
G---------------|---|---|---------------|
D---------------|-%-|-%-|---------------|
A-3-----3-------|---|---|-3-------------|
E---5-3---5-3-5-|---|---|---5-3-6-5-3-5-|

2. Chorus 1:

- guitar : play bar 1 of intro six times, then play following :

e-------------|-----------|
B-------------|-----------|
G-------------|-----------|
D-------------|-----------|
A-3-----3-----|---------0-|
E---5-3---5-3-|-0-1-2-3---|

- horns :

e-----------|-----------|-----------|-----------|-----------|--------|
B-----------|-----------|-----------|-----------|-----------|--------|
G-----------|-----------|-----------|-----------|-----------|--------|
D-2-0---+-2-|-*-------0-|-2-0---+---| *-------0-|-5-----+-5-|-*-----0|
A-----3-----|-----0-3---|-----3---3-|-----0-3---|---3-2-----|----0-3-|
E-----------|---3-------|-----------|---3-------|-----------|--3-----|

e-------|-----------|
B-------|-----------|
G-------|---------2-|
D-5-----|-2-3-4-5---|
A---3-2-|-----------|
E-------|-----------|

3. Verse:

e---------------|---|---|---------------|---------------|---|---|---|
B---------------|---|---|---------------|---------------|---|---|---|
G---------------|---|---|---------------|---------------|---|---|---|
D---------------|-%-|-%-|---------------|---------------|-%-|-%-|-%-|
A-3-----3-------|---|---|-3-------------|-3-----3-------|---|---|---|
E---5-3---5-3-5-|---|---|---5-3-6-5-3-5-|---5-3---5-3-5-|---|---|---|

 

e---------------|---|---|---|---------------|---|---|---|
B---------------|---|---|---|---------------|---|---|---|
G---------------|-%-|-%-|-%-|---------------|---|---|---|
D-3-----3-------|---|---|---|---------------|-%-|-%-|-%-|
A---5-3---5-3-5-|---|---|---|-3-----3-------|---|---|---|
E---------------|---|---|---|---5-3---5-3-5-|---|---|---|


e---------------|---|---------------|---|
B---------------|---|---------------|---|
G---------------|-%-|---------------|-%-|
D-5-----5-------|---|-3-----3-------|---|
A---7-5---7-5-7-|---|---5-3---5-3-5-|---|
E---------------|---|---------------|---|

4. Chorus 1

5. Verse

6. Chorus 2:

- guitar : plays same as Chorus 1, except 2 final bars

e-------------|---------|---------|
B-------------|---------|---------|
G-------------|---------|---------|
D-------------|---------|---------|
A-3-----3-----|---------|---------|
E---5-3---5-3-|-0-1-2-3-|-0-1-2-3-|

- horns: play same as Chorus 1, except during 2 final bars

e-------|---------|---------|
B-------|---------|---------|
G-------|---------|---------|
D-5-----|-2-3-4-5-|-2-3-4-5-|
A---3-2-|---------|---------|
E-------|---------|---------|

7. Bridge: guitar and horns play same

e---------|-----------|
B---------|-----------|
G---------|-----------| repeat
D-2-2-2-2-|-2-0-2-3-2-|
A---------|-----------|
E---------|-----------|


e---------|-----------|
B---------|-----------|
G---------|-------2---| repeat
D-5-5-5-5-|-5-3-5---5-|
A---------|-----------|
E---------|-----------|


8. Chorus 2


9. Fine:

- guitar         

e---|
B---|
G---|
D---|
A-3-|
E---|

- horns

e---|
B---|
G-5-|
D---|
A---|
E---|



________________________________________________________________________________
     
Добавлено: 16.07.2013
Другие материалы по этой песне:
  • Аккорды и текст

Страница создана 16.07.2013
http://primanota.ru/otis-redding/cant-turn-you-loose-chords.htm
Привет, Гость.
Предлагаем пройти революционный курс по гитаре.
Подарок от PrimaNota.Ru, забирай!