PrimaNota.ru - самый крупный в мире бесплатный архив песенных текстов, аккордов, табулатур и нот


Other Lives - 2 Pyramids - бас-таба, видео

Регистрация Запомнить меня
Войти через:  Facebook Google Twitter Vk Yandex Mail.ru

Other Lives - 2 Pyramids - бас-таба, видео

Печатать
Просмотров: 89
-------------------------------------------------------------------------------
                             2 Pyramids - Other Lives
-------------------------------------------------------------------------------
Tabbed by: @mike_venusaur
E-mail: mikev423@gmail.com

The chorus is tonally an octave down, but Jesse plays it up high on bass live

Intro x2

G|---------------------------------------------------------------------------|
D|--9--9----9--9----12--12---------------------------------------------------|
A|----------------------------10--10----10--10----7--7----7--7---------------|
E|---------------------------------------------------------------------------|

Verse x1
(00:30)
G|---------------------------------------------------------------------------|
D|---------------------------------------------------------------------------|
A|----------2--2----2--2----2--2----2--2----2--2----2--2----2--2----2--2-----|
E|--2--3---------------------------------------------------------------------|

G|---------------------------------------------------------------------------|
D|---------------------------------------------------------------------------|
A|-----------------------------------------2--2----2--2----------------------|
E|--3---------------0-------3-------------------------------3----------------|

Chorus x2

G|---------------------------------------------------------------------------|
D|--9--9----9--9----12--12---------------------------------------------------|
A|----------------------------10--10----10--10----7--7----7--7---------------|
E|---------------------------------------------------------------------------|

2nd Verse x2
G|---------------------------------------------------------------------------|
D|---------------------------------------------------------------------------|
A|--2---------------5--------------------------------------------------------|
E|--------------------------------------3---------0--------2--3--------------|

Chorus x2

G|---------------------------------------------------------------------------|
D|--9--9----9--9----12--12---------------------------------------------------|
A|----------------------------10--10----10--10----7--7----7--7---------------|
E|---------------------------------------------------------------------------|

Bridge

G|---------------------------------------------------------------------------|
D|---------------------------------------------------------------------------|
A|--10--------------7-------------------10----------------7------------------|
E|---------------------------------------------------------------------------|

Verse 3

G|---------------------------------------------------------------------------|
D|---------------------------------------------------------------------------|
A|--2--2----2--2----2--2----2--2----2--2----2--2----2--2----2--2-------------|
E|-----------------------------------------------------------------------3---|

G|---------------------------------------------------------------------------|
D|---------------------------------------------------------------------------|
A|----------2--2----2--2----2--2----2--2----2--2----2--2----2--2----2--2-----|
E|--2--3---------------------------------------------------------------------|

G|---------------------------------------------------------------------------|
D|---------------------------------------------------------------------------|
A|-----------------------------------------2--2----2--2----------------------|
E|--3---------------0-------3-------------------------------3----------------|

Chorus x6

G|---------------------------------------------------------------------------|
D|--9--9----9--9----12--12---------------------------------------------------|
A|----------------------------10--10----10--10----7--7----7--7---------------|
E|---------------------------------------------------------------------------|


===============================================================================
Добавлено: 29.11.2015
Вам также может быть интересно:
Другие материалы по этой песне:
  • Аккорды и текст

Страница создана 29.11.2015
http://primanota.ru/other-lives/2-pyramids-chords.htm
Привет, Гость.
Предлагаем пройти революционный курс по гитаре.
Подарок от PrimaNota.Ru, забирай!