PrimaNota.ru - самый крупный в мире бесплатный архив песенных текстов, аккордов, табулатур и нот


Otep - Oh So Surreal - таба, видео

Регистрация Запомнить меня
Войти через:  Facebook Google Twitter Vk Yandex Mail.ru

Otep - Oh So Surreal - таба, видео

Печатать
Просмотров: 127
Well.. this is my first tab.
I couldn't find this song(or any other good Otep songs) tabbed out on here, so I was 
"what the hell?", so I tabbed this song out myself.

I'm not fully sure on if this is how it's played, but this is how I play it and it 
almost the same as the song.
Enjoy! =D

[intro]
clean - very light distortion(opt.)

            I wish I didnt know....
|----------------------------------------------------|
|----------------------------------------------------|
|----------------------------------------------------|
|---2---2~-----2---3~----2---2~-----2---3~-----------|
|----------------------------------------------------|
|-2---2------2---2-----2---2-----2---2---------------|

|----------------------------------------------------|
|----------------------------------------------------|
|----------------------------------------------------|
|---2---3p2-0-2-----2---3p2-0-2-----2---3p2-0-2------|
|----------------------------------------------------|
|-2---2-----------2---2-----------2---2--------------|

heavy distortion
|----------------------------------------------------|
|----------------------------------------------------|
|----------------------------------------------------|
|-2-2-2-3-2-0-2~-------------------------------------|
|-2-2-2-3-2-0-2~-------------------------------------|
|-2-2-2-3-2-0-2~-------------------------------------|


[verse]
Clean - very light distortion
                                 ... And as a child..
|----------------------------------------------------|
|----------------------------------------------------|
|-----------------------1----------------------------|
|---2---3p2-0-2-----2-----2-0-2-0-----2---3p2-0-2----|
|----------------------------------------------------|
|-2---2-----------2---2-------------2---2------------|

|----------------------------------------------------|
|----------------------------------------------------|
|---------------------------------------1------------|
|---2---3p2-0-2-----2---3p2-0-2-----2-----2-0-2-0----|
|----------------------------------------------------|
|-2---2-----------2---2-----------2---2--------------|

|----------------------------------------------------|
|----------------------------------------------------|
|----------------------------------------------------|
|---2---3p2-0-2-----2---3p2-0-2-----2---3p2-0-2------|
|----------------------------------------------------|
|-2---2-----------2---2-----------2---2------2-------|

|----------------------------------------------------|
|----------------------------------------------------|
|----------------------------------------------------|
|---2---3p2-0--2--3p2-0-2--3p2-0---------------------|
|----------------------------------------------------|
|-2---2-------2-2------2-2---------------------------|


[chorus]
heavy distortion
                      ...Apathy is so hip...
|----------------------------------------------------|
|----------------------------------------------------|
|--------------------------555-444-------------------|
|-3-22--3-22--3-22--3-22---555-444-------------------|
|-3-22--3-22--3-22--3-22---333-222-------------------|
|-3-22--3-22--3-22--3-22-----------------------------|
                           ... ...

|----------------------------------------------------|
|----------------------------------------------------|
|--------------------------555-444-------------------|
|-3-22--3-22--3-22--3-22---555-444-------------------|
|-3-22--3-22--3-22--3-22---333-222-------------------|
|-3-22--3-22--3-22--3-22-----------------------------|
                           ... ...

|----------------------------------------------------|
|----------------------------------------------------|
|----------------------------------------------------|
|--7/8/9/10101010/9/8/7777/8/9/10101010--------------|
|--5/6/7/-8-8-8-8/7/6/5555/6/7/-8-8-8-8--------------|
|----------------------------------------------------|

|----------------------------------------------------|
|----------------------------------------------------|
|----------------------------------------------------|
|--7/8/9/10101010/9/8/7777/8/9/10101010--------------|
|--5/6/7/-8-8-8-8/7/6/5555/6/7/-8-8-8-8--------------|
|----------------------------------------------------|

|----------------------------------------------------|
|----------------------------------------------------|
|--------------------------555-444-------------------|
|-3-22--3-22--3-22--3-22---555-444-------------------|
|-3-22--3-22--3-22--3-22---333-222-------------------|
|-3-22--3-22--3-22--3-22-----------------------------|
                           ... ...

|----------------------------------------------------|
|----------------------------------------------------|
|--------------------------555-444-------------------|
|-3-22--3-22--3-22--3-22---555-444-------------------|
|-3-22--3-22--3-22--3-22---333-222-------------------|
|-3-22--3-22--3-22--3-22-----------------------------|
                           ... ...

|----------------------------------------------------|
|----------------------------------------------------|
|----------------------------------------------------|
|--7/8/9/10101010/9/8/7777/8/9/10101010--------------|
|--5/6/7/-8-8-8-8/7/6/5555/6/7/-8-8-8-8--------------|
|----------------------------------------------------|

|----------------------------------------------------|
|----------------------------------------------------|
|----------------------------------------------------|
|--3-3-3-3-3-3-0~------------------------------------|
|--3-3-3-3-3-3-0~------------------------------------|
|--3-3-3-3-3-3-0~------------------------------------|


[verse]
[chorus]


{bridge}
|----------------------------------------------------|
|----------------------------------------------------|
|---------------------5----------------------5-------|
|-2222-2222-2222-2222-5--2222-2222-2222-2222-5-------|
|-2222-2222-2222-2222-3--2222-2222-2222-2222-3-------|
|-2222-2222-2222-2222----2222-2222-2222-2222---------|
  .... .... .... ....    .... .... .... ....

|----------------------------------------------------|
|----------------------------------------------------|
|----9/-----10/------8/------9/----------------------|
|-2229/--22210/---2228/---2229/----------------------|3x
|-2227/--2228/----2226/---2227/----------------------|
|-222----222------222-----222------------------------|
  ...    ...      ...     ...

|----------------------------------------------------|
|----------------------------------------------------|
|----------------------------------------------------|
|-222------------------------------------------------|
|-222------------------------------------------------|
|-222------------------------------------------------|
  ...

[chorus]
-pause-
[ending verse]

This is how the song goes.
-Intro
-Verse
-Chorus
-Verse
-Chorus
-Bridge
-Chorus
-End verse
Добавлено: 12.06.2012
Другие материалы по этой песне:
  • Аккорды и текст

Страница создана 12.06.2012
http://primanota.ru/otep/oh-so-surreal-chords.htm
Привет, Гость.
Предлагаем пройти революционный курс по гитаре.
Подарок от PrimaNota.Ru, забирай!