PrimaNota.ru - самый крупный в мире бесплатный архив песенных текстов, аккордов, табулатур и нот


Otep - My Confession - текст песни, таба, бас-таба, видео

Регистрация Запомнить меня
Войти через:  Facebook Google Twitter Vk Yandex Mail.ru

Otep - My Confession - текст песни, таба, бас-таба, видео

Печатать
Просмотров: 282
Band- Otep
Song- My Confession

Intro/Verse:
--------------------------------------------------|
--------------------------------------------------|
--------------------------------------------------|
---------2-----------2-----------2-----2-1-2------|
------1-----1-----1-----1-----1-----1---------1---|
---0-----------0-----------0----------------------|

---------------------------------------|
---------------------------------------|
---------------------------------------|
-------2---2---2-------2---2---2-1/2---|
-----1---1---1---1---1---1-------------|
---0---------------0-------------------|

-------------------|
-------------------|
---x-3—-4-3-—x-3---|
-------------------|
-------------------|
-------------------|

Chorus:
------------------------------------------------------|
------------------------------------------------------|
------------------------------------------------------|
---6-6-6-6-------6-6-6-6—------6-6-6-6—-----—---------|
---6-6-6-6--7----6-6-6-6--7----6-6-6-6--7-----6-7-6---|
---6-6-6-6-------6-6-6-6-------6-6-6-6----------------|

-------------------------------------------------|
-------------------------------------------------|
-------------------------------------------------|
---6-6—-8-9-8—-6-6—-8-9-8—-6-6—-8-9-8—-9-8-9-8---|
---6-6---------6-6---------6-6-------------------|
---6-6---------6-6---------6-6-------------------|

Bridge:
-------------------------------------------|
-------------------------------------------|
-----3-2-3-----3-1-0-----------------------|
-------------------------4-3-4-------------|
---1---------1---------1---------1-4-3-2---|
-------------------------------------------|

Bridge 2:
---------------------|-----------------------|
---------------------|-----------------------|
---------------------|-----------------------|
---6-6-6-6-7-7-7-7---|---0-0-2-2-2/6-6-6-6---|
---6-6-6-6-7-7-7-7---|---0-0-2-2-2/6-6-6-6---|
---6-6-6-6-7-7-7-7---|---0-0-2-2-2/6-6-6-6---|
Добавлено: 14.04.2012
Другие материалы по этой песне:
  • Аккорды и текст

Страница создана 17.03.2012
http://primanota.ru/otep/my-confession-chords.htm
Привет, Гость.
Предлагаем пройти революционный курс по гитаре.
Подарок от PrimaNota.Ru, забирай!