PrimaNota.ru - самый крупный в мире бесплатный архив песенных текстов, аккордов, табулатур и нот


Osker - The Mistakes You Make - текст песни, бас-таба, видео

Регистрация Запомнить меня
Войти через:  Facebook Google Twitter Vk Yandex Mail.ru

Osker - The Mistakes You Make - текст песни, бас-таба, видео

Печатать
Просмотров: 72


TAB INFO
Band: Osker
Song: The Mistakes You Make
Album: Idle Will Kill
Year: 2001
Tab Type: Bass
Tuning: EADG
Length: 3:03
Tabbed By: Dustin (theNemesis013@hotmail.com)

**There's a lot movement in the intro and chorus that I can't figure out, but it still sounds good this way.**

Riff 1
G -|-------------|
D -|-------------|
A -|-6-2----2-|
E -|-------2----|

Riff 2
G -|--------|
D -|--------|
A -|-666-2-|
E -|--------|

Riff 3     
G -|----4-----------|
D -|------4---------|
A -|-4-----4-2-6-2-|
E -|----------------|

Riff 4
G -|------------------------------------|
D -|------------------------------------|
A -|-2-2-22-22-2-22-22-2-22-22-2-22-4-|
E -|------------------------------------|

Riff 5
G -|-----------------|
D -|-----------------|
A -|-6-2-4-2-|
E -|-----------------|

Riff 6
G -|------------------------|
D -|------------------------|
A -|-22-22-22-22-22-22-2222-|
E -|------------------------|

Riff 7
G -|--------------------|
D -|--------------------|
A -|------4444-22222222-|
E -|-2222---------------|

Riff 8
G -|-------|
D -|-------|
A -|-2-222-|
E -|-------|

Riff 9
G -|---------------------------------------------|
D -|---------------------------------430---------|
A -|-6-66-2-22-4-44-2-2--6-66-2-22-4-----2-2--2~-|
E -|-------------------2-------------------------|

Song Structure:
Riff 1: 0:00	x4
Riff 2: 0:17	x4
Riff 3: 0:26	x1
Riff 4: 0:30	x2
Riff 5: 0:46	x1
Riff 2: 0:54	x4
Riff 3: 1:02	x1
Riff 4: 1:07	x2
Riff 5: 1:23	x2
Riff 6: 1:39	x1
Riff 7: 1:43	x4
Riff 8: 1:58	x4
Riff 4: 2:07	x2
Riff 5: 2:23	x2
Riff 9: 2:39	x1

Добавлено: 08.10.2013
Другие материалы по этой песне:
  • Аккорды и текст

Страница создана 05.06.2012
http://primanota.ru/osker/the-mistakes-you-make-chords.htm
Привет, Гость.
Предлагаем пройти революционный курс по гитаре.
Подарок от PrimaNota.Ru, забирай!