PrimaNota.ru - самый крупный в мире бесплатный архив песенных текстов, аккордов, табулатур и нот


Osker - Radio - аккорды и текст, видео

Регистрация Запомнить меня
Войти через:  Facebook Google Twitter Vk Yandex Mail.ru

Osker - Radio - аккорды и текст, видео

Печатать
Просмотров: 135
Уроки эстрадного вокала в Санкт-Петербурге
Radio
Osker
-------------------------------------------------------
Song: Radio
Band: Osker
Album: Treatment 5
Words and Music Written by Osker
Tabbed by Quezy
-------------------------------------------------------
                   Radio-Osker
-------------------------------------------------------
I added in lyrics every time a chord changes as a sort
of mile-marker to find your bearings.
(names of chords capitalized)  (E)=palm mute
Guitar thing at pre-intro:
   E
e--0------------
b--0----------0-
g--1--------1---
d--2------2-----
a--2------------
e--0------------

Intro:
  A                   E                 
e---------|---------|---------|----------|
b---------|---------|---------|----------|
g---------|---------|---------|----------| x3
d-7-7-7-7-|-7-7-7-7-|-2-2-2-x-|-2-2-2-x--|
a-7-7-7-7-|-7-7-7-7-|-2-2-2-x-|-2-2-2-x--|
e-5-5-5-5-|-5-5-5-5-|-0-0-0-x-|-0-0-0-x--|
    
  A
e---------|---------|
b---------|---------|
g---------|---------|
d-7-7-7-7-|-7-7-7-7-|
a-7-7-7-7-|-7-7-7-7-|
e-5-5-5-5-|-5-5-5-5-|

VERSE
 (E)                (C#)  
e---------|---------|---------|---------|
b---------|---------|---------|---------|
g---------|---------|-----5-5-|-6-6-5-5-|
d---------|---------|-6-6-6-6-|-6-6-6-6-|
a-2-2-2-2-|-2-2-2-2-|-4-4-4-4-|-4-4-4-4-|
e-0-0-0-0-|-0-0-0-0-|---------|---------|
      You're all I... elctronics...
 (A)                 (E)
e---------|---------|---------|---------|
b---------|---------|---------|---------|
g---------|---------|---------|---------|
d---------|---------|---------|---------|
a-7-7-7-7-|-7-7-7-7-|-2-2-2-2-|-2-2-2-2-|
e-5-5-5-5-|-5-5-5-5-|-0-0-0-0-|-0-0-0-0-|
  understood...
 (E)                 (C#) 
e---------|---------|---------|---------|
b---------|---------|---------|---------|
g---------|---------|-----5-5-|-6-6-5-5-|
d---------|---------|-6-6-6-6-|-6-6-6-6-|
a-2-2-2-2-|-2-2-2-2-|-4-4-4-4-|-4-4-4-4-|
e-0-0-0-0-|-0-0-0-0-|---------|---------|
      You're all i... electronics...  
 (A)                 (B)
e---------|---------|---------|---------|
b---------|---------|---------|---------|
g---------|---------|---------|---------|
d---------|---------|---------|---------|
a-7-7-7-7-|-7-7-7-7-|-9-9-9-9-|-9-9-9-9-|
e-5-5-5-5-|-5-5-5-5-|-7-7-7-7-|-7-7-7-7-|
  understood....      understood...

CHORUS
  E         F#        A 
e---------|---------|---------|---------|
b---------|---------|---------|---------|
g---------|---------|---------|---------| x2
d-2-2-2-2-|-4-4-4-4-|-7-7-7-7-|-7-7-7-7-|
a-2-2-2-2-|-4-4-4-4-|-7-7-7-7-|-7-7-7-7-|
e-0-0-0-0-|-2-2-2-2-|-5-5-5-5-|-5-5-5-5-|
  radio...  mind...   everything...

Verse
(Repeat)

Chorus
(Repeat x2)

Slow Middle Part
  E         B 
e---------|---------|-----------|---------|
b---------|---------|-----0-----|---------|
g---------|-4-------|-------2-1-|-2-------|
d-2-------|-4(ring)-|---2-------|---------|
a-2(ring)-|-2-------|-0---------|---------|
e-0-------|---------|-----------|---------|
  E         B 
e---------|---------|-----------|-----------|
b---------|---------|-----0-----|-----0-----|
g---------|-4-------|-------2-1-|-------2-1-|
d-2-------|-4(ring)-|---2-------|---2-------|
a-2(ring)-|-2-------|-0---------|-0---------|
e-0-------|---------|-----------|-----------|

Verse
(Reapeat except ring on E chord and only bass plays)

Chorus
(Repeat x2)
 
Ending Slow Part
  E
e---------|---------|-------|-------|
b---------|---------|-------|-------|
g---------|---------|-------|-------|
d-2-------|---------|-6-7-6-|-4-2---|
a-2(ring)-|-(ring)--|-------|-------|
e-0-------|---------|-------|-------|

e---------|---------|-------|-------|
b---------|---------|-------|-------|
g---------|---------|-------|-------| x3
d-2-------|-4-------|-6-7-6-|-4-2---|
a---------|---------|-------|-------|
e---------|---------|-------|-------|

Ending
e-0-----------
b-0--------0--
g-1-------1---
d-2------2----
a-2-----------
e-0-----------
  
  A                   E  
e---------|---------|--
b---------|---------|--
g---------|---------|--
d-7-7-7-7-|-7-7-7-7-|-2  KILL IT!
a-7-7-7-7-|-7-7-7-7-|-2
e-5-5-5-5-|-5-5-5-5-|-0
     
Добавлено: 19.06.2013
Вам также может быть интересно:
Другие материалы по этой песне:
  • Аккорды и текст

Страница создана 09.07.2012
http://primanota.ru/osker/radio-chords.htm
Привет, Гость.
Предлагаем пройти революционный курс по гитаре.
Подарок от PrimaNota.Ru, забирай!