PrimaNota.ru - самый крупный в мире бесплатный архив песенных текстов, аккордов, табулатур и нот


Osker - Back To You - текст песни, бас-таба, видео

Регистрация Запомнить меня
Войти через:  Facebook Google Twitter Vk Yandex Mail.ru

Osker - Back To You - текст песни, бас-таба, видео

Печатать
Просмотров: 133
Band: Osker
Album: Idle Will Kill
Song: Back to you

/ = slide up
\ = slide down
. = staccato

I know the timing isn't perfect but listen and you'll get it.
Corrections welcome.

11 is eleven all the way through

Please rate!

Intro:

G|---------------------------------|
D|----------------------9-9----7-7-| 
A|-4-444444-22222222/777-7--000-0--| 
E|---------------------------------|

G|----------------------------------------|
D|----------------------9-9----7-7----7-7-| 
A|-44444444-22222222/777-7--000-0--000-0--| 
E|----------------------------------------|

G|-----------------------------------|
D|-----------------------------------| 
A|-7~-------------------777777777777-| 
E|-----------------------------------|

The above repeated 7's start slightly after the guitar strumming

Verse: (0:18)

G|-------------------------------------|
D|-------------------------------------| 
A|-4-4444-2-0-00000-2-4-4444-2-0-00000-| 
E|-------------------------------------|

G|-----------------|
D|-222-222---------| 
A|---------000-000-| x2
E|-----------------|

G|----------------------------------------|
D|-----------------------------------2-44-| 
A|-4-4444-2-0-00000-2-4-44444-2-0-00------| 
E|----------------------------------------|

Pre-chorus (0:34)

G|--------------------------------------|
D|----7-77----11-1111----7-77---9---119-| 
A|----------------------------77--77----| 
E|-55------99---------55----------------|

G|-----------------------------6-------|
D|----7-77----11-1111----7-77---976----| 
A|----------------------------7----976-| 
E|-55------99---------55---------------|

G|--------------------|
D|--------------------| 
A|-4444-2222-00000000-| 
E|--------------------|

Chorus (0:45)

G|------4------------------------------|
D|-22222-22----------------------------| 
A|----------22222222-44444444-00000000-| 
E|-------------------------------------|

G|-------------------------------------|
D|-------------------------------2-2---| 
A|-22222222-00000000-44444444-0-0----0-| 
E|-------------------------------------|

Verse 2: (0:56)

G|-----------------|
D|-222-222---------| 
A|---------000-000-| x2
E|-----------------|

G|-------------------------------------|
D|-------------------------------------| 
A|-4-4444-2-0-00000-2-4-4444-2-0-00000-| 
E|-------------------------------------|

G|-----------------|
D|-222-222---------| 
A|---------000-000-| x2
E|-----------------|

G|----------------------------------|
D|------------------------------2/4-| 
A|-4-4444-2-0-00000-2-4-4444-2-0----| 
E|----------------------------------|

Then: 
Pre-chorus (1:17)
Chorus (1:30)

Bridge: (1:43)

G|---------------------------------|
D|----------------2-22-22----------| 
A|-4444-444-44-44---------2-222-22-| 
E|---------------------------------|

G|-------------------------|
D|-22222222222222222222222-| 
A|-------------------------|
E|-------------------------|

G|---------------------------------|
D|----------------6-4242-22-222-22-| 
A|-4-444444444444------------------| 
E|---------------------------------|

G|------------------|
D|-4-444-44-444-4\2-| 
A|------------------|
E|------------------|

Final Pre-chorus: (1:59)

G|--------------------------------------|
D|----7-77----11-1111----7-77---9---119-| 
A|----------------------------77--77----| 
E|-55------99---------55----------------|

G|-----------------------------6~---------|
D|----7-77----11-1111----7-77----7~-------| 
A|----------------------------------7~-7.-|
E|-55------99---------55------------------|

Final Chorus: (2:13)

G|------4------------------------------|
D|-22222-22----------------------------| 
A|----------22222222-44444444-00000000-| 
E|-------------------------------------|

G|-------------------------------------|
D|-------------------------------2-2---| 
A|-22222222-00000000-44444444-0-0----0-| 
E|-------------------------------------|

G|------4------------------------------|
D|-22222-22-44444444-------------------| 
A|-------------------44444444-00000000-| 
E|-------------------------------------|

G|-------------------------------------|
D|-------------------------------2-2---| 
A|-22222222-00000000-44444444-0-0----0-| 
E|-------------------------------------|
Добавлено: 18.05.2012
Другие материалы по этой песне:
  • Аккорды и текст

Страница создана 18.05.2012
http://primanota.ru/osker/back-to-you-chords.htm
Привет, Гость.
Предлагаем пройти революционный курс по гитаре.
Подарок от PrimaNota.Ru, забирай!