PrimaNota.ru - самый крупный в мире бесплатный архив песенных текстов, аккордов, табулатур и нот


Osi - Stockholm - таба, видео

Регистрация Запомнить меня
Войти через:  Facebook Google Twitter Vk Yandex Mail.ru

Osi - Stockholm - таба, видео

Печатать
Просмотров: 81
Авторы музыки: Kevin Moore, Jim Matheos
Авторы текста: Mikael Åkerfeldt
Tuning: C# standard (C# F# B E G# c#; 1.5 steps down)
Chilling song.


MAIN RIFF: a lot of everywhere in the first half

c#|-------------------------------|-------------------------------|
G#|-------------------------------|-------------------------------|
 E|-------------7-----------------|-------------------------------|
 B|-----9-------------------------|-----9------\7-----------------|
F#|---------7---------7-------7---|---------7---------7-------7---|
C#|-0---------------------0-------|-0---------------------0-------|
    1   +   2   +  3  +   4   +     1   +   2   +  3  +   4   +
                                   -------------------------------    ---------------------------
                                   1.                             |  |2.
c#|-------------------------------|--------------------------------||--------------------------------|
G#|-------------------------------|--------------------------------||--------------------------------|
 E|-------------7-----------------|------------------------------o-||--------------------------------|
 B|-----9-------------------------|------------------------------o-||--------------------------------|
F#|---------7---------7-------7---|-----10-\-7---7-----7-------7---||-----10-\-7---7-----7-------6-7-|
C#|-0---------------------0-------|-0----------------------0-------||-0---------------------0--------|
    1   +   2   +  3  +   4   +     1   +    2   +  3  +   4   +      1   +    2   +  3  +   4   +


FIRST INTERLUDE

c#|---------15--14---------------|---------19---20-----------------|
G#|------------------------------|---------------------------------|
 E|------------------------------|---------------------------------|
 B|------------------------------|---------------------------------|
F#|------------------------------|---------------------------------|
C#|------------------------------|---------------------------------|
    1   +   2   +  3  +   4   +     1   +   2   +  3  +   4   +

c#|---------15--14---------------|---------------------------------|
G#|------------------------------|-15-----------12-----------------|
 E|------------------------------|---------------------------------|
 B|------------------------------|---------------------------------|
F#|------------------------------|---------------------------------|
C#|------------------------------|---------------------------------|
    1   +   2   +  3  +   4   +     1   +   2   +  3  +   4   +

c#|---------15--14---------------|---------19---20-----------------|
G#|------------------------------|---------------------------------|
 E|------------------------------|---------------------------------|
 B|------------------------------|---------------------------------|
F#|------------------------------|---------------------------------|
C#|------------------------------|---------------------------------|
    1   +   2   +  3  +   4   +     1   +   2   +  3  +   4   +

c#|------------------------------|---------------------------------|
G#|---------18--17---------------|---------------------------------|
 E|------------------------------|--14----------15/16--------------|
 B|------------------------------|---------------------------------|
F#|------------------------------|---------------------------------|
C#|------------------------------|---------------------------------|
    1   +   2   +  3  +   4   +     1   +   2   +  a  3  +   4   +


TRANSITION MATERIAL TO "BLOOD"
(also "he is calling his house/eyes fixed at the gun" and after "half-light")
(note: PR = polyrhythm. "Blood" is in 5/4 for the most part.)

c#|-------------------------------------------------|-------------------------------------------------|
G#|----------17-------------18-------------17-------|----------------------17-------------18----------|
 E|-16-19-16-------16-19-16-------16-19-16-------16-|-19-16-17----16-19-16-------16-19-16-------16-19-|
 B|-------------------------------------------------|-------------------------------------------------|
F#|-------------------------------------------------|-------------------------------------------------|
C#|-------------------------------------------------|-------------------------------------------------|
    1  e  +  a  2  e  +  a  3  e  +  a  4  e  +  a    1  e  +  a  2  e  +  a  3  e  +  a  4  e  +  a  
PR: 1           2           3           4             5           1           2           3
          He                      is                        cal                     ling

c#|-------------------------------------------------|-------------------------------------------------|
G#|----17----------------------------17-------------|-18-------------17----------------------------17-|
 E|-16-------16-19-16-17----16-19-16-------16-19-16-|-------16-19-16-------16-19-16-17----16-19-16----|
 B|-------------------------------------------------|-------------------------------------------------|
F#|-------------------------------------------------|-------------------------------------------------|
C#|-------------------------------------------------|-------------------------------------------------|
    1  e  +  a  2  e  +  a  3  e  +  a  4  e  +  a    1  e  +  a  2  e  +  a  3  e  +  a  4  e  +  a  
PR: 4           5           1           2             3           4           5           1
          his               house                           eyes                    fixed

c#|-------------------------------------------------|-----
G#|-------------18-------------17-------------------|-----
 E|----16-19-16-------16-19-16-------16-19-16-17----|-16--
 B|-------------------------------------------------|-----
F#|-------------------------------------------------|-----
C#|-------------------------------------------------|-----
    1  e  +  a  2  e  +  a  3  e  +  a  4  e  +  a    1
PR: 2           3           4           5             1
          at                      the                 gun


RHYTHM DISTORTION GUITAR (second time for "he is calling his house")

c#|---------------------------------|---------------------------------|
G#|---------------------------------|---------------------------------|
 E|---------------------------------|---------------------------------|
 B|-----------------------------0h2-|---------------------------------|
F#|-2-2-2-----------2---------------|---------2-----2-----2-2---------|
C#|-0-0-0-----------0---------------|---------0-----0-----0-0---------|
    m m m           m                         m     m     m m
    1 e + a 2 e + a 3 e + a 4 e + a   1 e + a 2 e + a 3 e + a 4 e + a 
PR: 1       2       3       4         5       1       2       3
 1:     he              is                call      -     ing
 2: gun
 3:     a       lan  -  guage   she       don't    know   tell - ing

c#|---------------------------------|---------------------------------|
G#|---------------------------------|---------------------------------|
 E|---------------------------------|---------------------------------|
 B|---------------------------------|-------------0h2-----------------|
F#|-----------------2-2-2-----------|-2-----------------------2-----2-|
C#|-0-3-5-----------0-0-0-----------|-0-----------------------0-----0-|
    m m m           m m m             m                       m     m
    1 e + a 2 e + a 3 e + a 4 e + a   1 e + a 2 e + a 3 e + a 4 e + a 
PR: 4       5       1       2         3       4       5       1
 1:     his         house                 eyes            fixed
 2:
 3:     her     a   -   bout    love      she     lets    him     in

                                   x3
c#|----------------------------------||
G#|----------------------------------||
 E|--------------------------------o-||
 B|--------------------------------o-||
F#|-----2-2--------------------------||
C#|-----0-0---------0-3-5-0-6--------||
        m m
    1 e + a 2 e + a 3 e + a 4 e + a
PR: 2       3       4       5
 1:     at              the
 2:
 3:     he      takes   his              chance


************************************

| /   slide up
| \   slide down
| h   hammer-on
| m   palm mute

************************************
Добавлено: 13.12.2015
Другие материалы по этой песне:
  • Аккорды и текст

Страница создана 13.12.2015
http://primanota.ru/osi/stockholm-chords.htm
Привет, Гость.
Предлагаем пройти революционный курс по гитаре.
Подарок от PrimaNota.Ru, забирай!