PrimaNota.ru - самый крупный в мире бесплатный архив песенных текстов, аккордов, табулатур и нот


Os Golpes - Va La Senhora - таба, видео

Регистрация Запомнить меня
Войти через:  Facebook Google Twitter Vk Yandex Mail.ru

Os Golpes - Va La Senhora - таба, видео

Печатать
Просмотров: 99
-------------------------------------------------------------------------------
                                     VÁ LÁ SENHORA - Os Golpes
-------------------------------------------------------------------------------
Tabbed by: Nytrogod
Email: pmvtl@hotmail.com


Os Golpes (official site): http://www.osgolpes.com/


Tuning: Standard (EADGBe)



INTRO:  F#m E (x2)


MAIN RIFF:


    F#                                   ---
e|--9-9-9-9-9-9-9-9---------------------|  |
B|--------------------------------------|  |
G|-------------------2--2-2--2-4-5-6~~--|  |
D|--------------------------------------|  |
A|--------------------------------------|  |
E|--------------------------------------|  |
                                           |
                                           | (x2)
    E                                      |
e|--7-7-7-7-7-7-7-7---------------------|  |
B|--------------------------------------|  |
G|-------------------2--2-2--2-4-5-6~~--|  |
D|--------------------------------------|  |
A|--------------------------------------|  |
E|--------------------------------------|  |
                                         ---


1st VERSE:

F#m
 Vá lá senhora
E
 Chegou a hora
F#m
 Vá lá senhora
E                                F#m
 Chegou a hora de escolher o seu par


(during verse:)

    F#m                       E
e|-------------------------------------------------------|
B|-------------------------------------------------------|
G|------6-----6-----6-----6-------4-----4-----4-----4----|  (x2)
D|----7-----7-----7-----7-------6-----6-----6-----6------|
A|--9-----9-----9-----9-----9-7-----7-----7-----7-----7--|
E|-------------------------------------------------------|


1st CHORUS:

F#m                 E
  De escolher o seu par
             F#m
Alguém p'ra amar
            E
Alguém p'ra amar!

(Alguém p'ra…!)


(during chorus:)

    F#m                        E
e|--------2--2-2---------------------0--0-0----------------------|
B|------0--------5--5-5-3--5-------0--------3-3--2-3-2-3-2-3/5---|
G|----0--------------------------0-------------------------------|  (x2)
D|--0--------------------------0---------------------------------|
A|---------------------------------------------------------------|
E|---------------------------------------------------------------|


2nd VERSE:

F#m
 Vá lá senhora
E
 A hora é pouca
F#m
 Vá lá senhora
E                                      F#m
 Que o tempo esgota, vá escolher o seu par


2nd CHORUS:

F#m                 E
  Vá escolher o seu par
             F#m
Alguém p'ra amar
            E
Alguém p'ra amar!

(Alguém p'ra…!)


BREAK:  Bm  A  G  F#m  E  D


BRIDGE:

Dmaj7          Amaj7
 Do sofrimento, a condição
Dmaj7            Amaj7
Sobre o pavimento da escuridão
Dmaj7               Amaj7
Raparigas e rapazes, monumentos tão audazes
Dmaj7               Amaj7
 Há azul na tua mão, sangue inocente, palpitação
Dmaj7              Amaj7
 Alegria, tradição, euforia, excitação

G  F#m  E
         P'ra escolher o seu par

CHORUS:

F#m                   E
  P'ra escolher o seu par
             F#m
Alguém p'ra amar
            E
Alguém p'ra amar!

(Alguém p'ra…!)


INTERLUDE:

    F#m                                                     Hey!
e|---9--9--9--9--9---9--9--9--9--9--12---9--9--9--9--9---9--9--9--9--9---|
B|---10-10-10-10-10--10-10-10-10-10------10-10-10-11-10--10-10-10-10-10--|
G|---11-11-11-11-11--11-11-11-11-11------11-11-11-11-11--11-11-11-11-11--|
D|---11-11-11-11-11--11-11-11-11-11------11-11-11-11-11--11-11-11-11-11--|
A|---9--9--9--9--9---9--9--9--9--9-------9--9--9--9--9---9--9--9--9---9--|
E|-----------------------------------------------------------------------|

    E                                    Hey!  
e|--7-7-7-7-7-7-7-7-7-7-9---7-7-7-7-7--7-7-7-7-7--|
B|--9-9-9-9-9-9-9-9-9-9-----9-9-9-9-9--9-9-9-9-9--|
G|--9-9-9-9-9-9-9-9-9-9-----9-9-9-9-9--9-9-9-9-9--|
D|--9-9-9-9-9-9-9-9-9-9-----9-9-9-9-9--9-9-9-9-9--|
A|--7-7-7-7-7-7-7-7-7-7-----7-7-7-7-7--7-7-7-7-7--|
E|------------------------------------------------|

    F#m                                                     Hey!
e|---9--9--9--9--9---9--9--9--9--9--12---9--9--9--9--9---9--9--9--9--9---|
B|---10-10-10-10-10--10-10-10-10-10------10-10-10-11-10--10-10-10-10-10--|
G|---11-11-11-11-11--11-11-11-11-11------11-11-11-11-11--11-11-11-11-11--|
D|---11-11-11-11-11--11-11-11-11-11------11-11-11-11-11--11-11-11-11-11--|
A|---9--9--9--9--9---9--9--9--9--9-------9--9--9--9--9---9--9--9--9---9--|
E|-----------------------------------------------------------------------|

    E
e|--7-7-7-7-7-7-7-7-7-7-7-7-7-7-7-7--|
B|--9-9-9-9-9-9-9-9-9-9-9-9-9-9-9-9--|
G|--9-9-9-9-9-9-9-9-9-9-9-9-9-9-9-9--|
D|--9-9-9-9-9-9-9-9-9-9-9-9-9-9-9-9--|
A|--7-7-7-7-7-7-7-7-7-7-7-7-7-7-7-7--|
E|-----------------------------------|


3rd VERSE:

G#m
 Vá lá senhora
F#
 A hora é pouca
G#m
 Vá lá senhora
F#                                      G#m
 Que o tempo esgota, vá escolher o seu par


(during verse:)

   G#m                        F#
e|-------------------------------------------------------|
B|-------------------------------------------------------|
G|------8-----8-----8-----8-------6-----6-----6-----6----|  (x2)
D|----9-----9-----9-----9-------8-----8-----8-----8------|
A|-11----11----11----11----11-9-----9-----9-----9-----9--|
E|-------------------------------------------------------|


CHORUS:

G#m                   F#
  P'ra escolher o seu par
             G#m
Alguém p'ra amar
            F#
Alguém p'ra amar!
              G#m
(Alguém p'ra amar!)

OUTRO:  G#m  F#  E  F#


(during chorus:)


   G#m
e|--------4--4-4---------------------2--2-2----------------------|
B|------2--------7--7-7-5--7-------2--------5-5--4-5-4-5-4-5/7---|
G|----2--------------------------2-------------------------------|  (x2)
D|--2--------------------------2---------------------------------|
A|---------------------------------------------------------------|
E|---------------------------------------------------------------|


OUTRO:  G#m  F#  C#m  F#   (x3)

OUTRO SOLO (with chords in the background):


    G#m        F#         C#m         F#
e|-------6-7-6------6-7-6------6-7-11-9----16-14-12-11--------|
B|--9----------7----------9-----------------------------------|
G|------------------------------------------------------------|       (x2)
D|------------------------------------------------------------| (last two times)
A|------------------------------------------------------------|
E|------------------------------------------------------------| 

LAST TIME, INSTEAD OF ENDING ON THE CHORD OF  F# , END ON  E


END

************************************

| /   slide up
| \   slide down
| ~   vibrato

************************************
Добавлено: 17.03.2012
Другие материалы по этой песне:
  • Аккорды и текст

Страница создана 17.03.2012
http://primanota.ru/os-golpes/va-la-senhora-chords.htm
Привет, Гость.
Предлагаем пройти революционный курс по гитаре.
Подарок от PrimaNota.Ru, забирай!