PrimaNota.ru - самый крупный в мире бесплатный архив песенных текстов, аккордов, табулатур и нот


Os Azeitonas - Anda Comigo Ver Os Avies - таба, видео

Регистрация Запомнить меня
Войти через:  Facebook Google Twitter Vk Yandex Mail.ru

Os Azeitonas - Anda Comigo Ver Os Avies - таба, видео

Печатать
Просмотров: 102
e|---------------------------------------------------------------------------|
B|---------2--------------5----3---2-----------------------------------------|
G|---------2-----4--2---------------------4--------1--------2----4-----------|
D|---------2---------------------------------------3--------3----3-----------|
A|----0--------------------------------------------4----4--------4---4-------|
E|---------------------------------------------------------------------------|

e|------------------------------------------2--------------------------------|
B|---2--0-------------------------------------2----------------------1-------|
G|--------------1---4------2---------2-----------2---------------2------2----|
D|------------------4----------4---------------------4------2----------------|
A|------------------4--------------------------------------------------------|
E|----------------------------------------------------------1----------------|

e|-------------------------------------------------------0-------------------|
B|--------------1-------------------------------------------0----------------|
G|---------2-------2------1----------2-----4----------------------------2x||-|
D|--0---------------------2----------4-----6----------------------6----------|
A|------------------------2-----2--------------------------------------------|
E|--1-------------------------------------------0----------------------------|

e|---------------------------------------------------------------------------|
B|---------5---5---5----3---2---3----5------9---------7----------------------|
G|---------6---6---6----4---2---4----6------9---------7----------------------|
D|---------------------------------------------------------------------------|
A|--0------------------------------------------------------------------------|
E|------------------------------------------0----0---------0-----------------|

e|-----------------------------------------------0----------2-----2----------|
B|----3----3----2---0-----3----3-------2-----2---2---2------2-----2----------|
G|----4----4----4---4-----2----2-------4-----4-------4------2---2------------|
D|----3----3----3---3-----4----4-------3--------------------0---------0------|
A|----4----4----4---4-----4-4--4---4---4-------------------------------------|
E|---------------------------------------------------------------------------|

e|--2--------2---------0-------0-------4---------4---------10---9--7---------|
B|--1--------1---------0-------0-------3---------3----------7----------------|
G|--2----2-------------1---1-----------4-----4--------------7----------------|
D|--1-----------0------2-----------0---3---------------3----0----------------|
A|---------------------------------------------------------------------------|
E|---------------------------------------------------------------------------|

e|--4--/---9----5------------5---4-------------4-----2----------2---4--------|
B|--3--/---9------------2-------------------2----------------2---------------|
G|--4--/---9--------2-------------------2-----------------2------------------|
D|---------------------------------------------------------------------------|
A|--------------0------------------------------------------------------------|
E|--0----------------------------0-------------------0--------------0--------|

e|---------4----5------------------------------------------------------------|
B|-----2--------2------------------------------------------------------------|
G|--2-----------2-----acaba com lá maior-------------------------------------|
D|---------------------------------------------------------------------------|
A|--------------0------------------------------------------------------------|
E|---------------------------------------------------------------------------|


A partir daqui já sabem como é a música e conseguen-se orientar bem :))) 
(espero eu)

Tabbed by: António Manuel

P.S.- Dedicado á Anishas! P.S. do P.S.- É a minha primeira tab, não sejam maus :)))
Добавлено: 28.09.2013
Другие материалы по этой песне:

Страница создана 25.07.2012
http://primanota.ru/os-azeitonas/anda-comigo-ver-os-avies-chords.htm
Привет, Гость.
Предлагаем пройти революционный курс по гитаре.
Подарок от PrimaNota.Ru, забирай!