PrimaNota.ru - самый крупный в мире бесплатный архив песенных текстов, аккордов, табулатур и нот


Orphaned Land - The Beloveds Cry - текст песни, таба, видео

Регистрация Запомнить меня
Войти через:  Facebook Google Twitter Vk Yandex Mail.ru

Orphaned Land - The Beloveds Cry - текст песни, таба, видео

Печатать
Просмотров: 132


oanguner@yahoo.com

Intro

---------7-8-5----------------------------7p8-5--------5-7-8p7-5--3/5----
---5h6-8-------8--6-5-6p5-----------5h6-8--------8-6-8-------------------
-5----------------7-------7-5-4---5----------------7---------------------
-7----------------7---------------7----------------7---------------------
-7----------------5---------------7--------------------------------------
-5--------------------------------5--------------------------------------
   2 times..

----------------------------------
----------------------------------
--------2-------------------------
----2-----2--------0--------------
--0---0-----0-1~-4---4-1-0h1p0----
-------------------------------3--
  4 times..


------------------------------0-------0------0-----0-1-0--
-----3-----------5----------0---0---0---0--0---0----------
-----3-------------5---5--2-------------------------------
---3---3-------5-----5----2-------3-------2------0--------
-1-------1-1/3------------0-------------------------------
----------------------------------------------------------
 (My heart fLies...)


------------------------------------- ---------------------- -------------------- 
-----3-----------5----------6------6- -8h10p8-6/5-5h6p5----- -------------------- 
-----3-------------5-----------7---7- ------------------7-5- -------------------- 
---3---3-------5-----5----7---------- ---------------------- --------2h3p2------- 
-1-------1-1/3----------5--------5--- ---------------------- ----3h5--------5-3-- 
------------------------------------- ---------------------- --5----------------- 
                                            (1. part)            (2.part)



---------------------------------------------------
--------6------------6---------3-----------5-------
----------7---7--------7---------3---3-------5---5-
------7-----7------7-----7----3----3-----5-----5---
----5------------5----------1----------3-----------
---------------------------------------------------
( When seawaves...) Repeat


SoLo

-17-13-12--------------------------------------------------------------------
-----------15---13-15--15p13h15---10h11pp10-8-10--8-6-5h6p5-------------------
-----------------------------------------------------------------------------
------------------------------------------------------------------------------
------------------------------------------------------------------------------
------------------------------------------------------------------------------

 

--13-12h13p12-10-12-----------------------------------------------------------
---------------------13-11h13p11-10-11----------------------------------------
---------------------------------------12-10h12p10-9-10-----------------------
---------------------------------------------------------12--10h12p10----10---
----------------------------------------------------------------------13------
------------------------------------------------------------------------------


-------------------------------------------------------13-13/17----------
------------------------------------12-12-12-------------------15-------
----------------------------9-9----------------------12-----------14-----
--------10-10-----10--10-12----12----------------------------------------
--10-13-------13---------------------------------------------------------
-------------------------------------------------------------------------

------------------------------------------------------------------------------
---------------------------------------------------------------------12-13----
--------------------------------------122-14-15-------------12-14-15----------
-12-10-12-12-12p10h12--------12-14-15--------------12-14-15-------------------
----------------------13-15--------------------15----------------------------
------------------------------------------------------------------------------

----------------
---13-----------
------14-14-----
------------12--
----------------
----------------

  

Добавлено: 20.12.2013
Другие материалы по этой песне:

Страница создана 16.03.2012
http://primanota.ru/orphaned-land/the-beloveds-cry-chords.htm
Привет, Гость.
Предлагаем пройти революционный курс по гитаре.
Подарок от PrimaNota.Ru, забирай!