PrimaNota.ru - самый крупный в мире бесплатный архив песенных текстов, аккордов, табулатур и нот


Orphaned Land - In Thy Never Ending Way Epilogue - таба, видео

Регистрация Запомнить меня
Войти через:  Facebook Google Twitter Vk Yandex Mail.ru

Orphaned Land - In Thy Never Ending Way Epilogue - таба, видео

Печатать
Просмотров: 175
-------------------------------------------------------------------------------
        IN THY NEVER ENDING WAY (EPILOGUE) - Orphaned Land
-------------------------------------------------------------------------------
Tabbed by: gassmdq
Email: gabrielsirio(at)gmail

Tuning: Drop D

This is my first tab ever!! Corrections are welcome!

(0:00)                 (0:13)
e|---------|-----------|----------|--------|----------------|----------------|
B|---------|-----------|----------|--------|----------------|----------------|
G|-7-3-5-2-|-7-3-5-10--|----------|--------|----------------|----------------|
D|-7-3-5-2-|-7-3-5-10--|-5-(x10)--|-0-(x4)-|-0-(x4)---------|-5-(x4)---------|
A|-5-1-3-0-|-5-1-3-8---|-5--------|-0------|-0------7p5-8p5-|-5--------------|
D|---------|-----------|-5--------|-0------|-0--------------|-5--------------|
                         *          *        *                *

                                            (0:24)
e|----------------|--------|----------------|--------------------------------|
B|----------------|--------|----------------|--------------------------------|
G|----------------|--------|----------------|--------------------------------|
D|-5-(x4)---------|-0-(x4)-|-0-(x4)---------|-7--8-8-8--7-7-7--5-(x12)-------|
A|-5------7p5-8p5-|-0------|-0------7p5-8p5-|-7--8-8-8--7-7-7--5-------------|
D|-5--------------|-0------|-0--------------|-7--8-8-8--7-7-7--5-------------|
   *                *                            * *    * *    *

e|-----------------------|-------------------|-------------------------------|
B|-----------------------|-------------------|-------------------------------|
G|-----------------------|-------------------|-------------------------------|
D|-7--8-8-8--10-10-10--0-|-------------5-7\2-|-8-8-8--7-7-7-5-5--------------|
A|-7--8-8-8--10-10-10--0-|-5-5-7-8-7-8-------|-8-8-8--7-7-7-5-5--------------|
D|-7--8-8-8--10-10-10--0-|-------------------|-8-8-8--7-7-7-5-5--------------|
      * *    *  *                              * *    * *

e|---------------------------------------------------------------------------|
B|---------------------------------------------------------------------------|
G|---------------------------------------------------------------------------|
D|-7--8-8-8--10-10-10--0-----------------------------------------------------|
A|-7--8-8-8--10-10-10--0-----------------------------------------------------|
D|-7--8-8-8--10-10-10--0-----------------------------------------------------|
      * *    *  *

(Repeat all over)

SOLO 

(1:30)
e|---------------------------------------------------------------------------|
B|---------------------------------------------------------------------------|
G|---------------------------------------------------------12-14-12-14-15/17-|
D|-17b-17b-15----15h17-15\14-14-15p14\12--------12-15-14-15------------------|
A|-----------17--------------------------15-15-------------------------------|
D|---------------------------------------------------------------------------|

               (1:37)
e|-------------|--------------17-------------|-------------------------------|
B|-17----------|-------17-17b----17b-15------|-------------------------------|
G|----17----17-|----19-----------------17-15-|-14-14-15-16-17-17~------------|
D|-------17----|-19--------------------------|-------------------------------|
A|-------------|-----------------------------|-------------------------------|
D|-------------|-----------------------------|-------------------------------|

                       (1:43)
e|-20-18-17------------|---------------------------------|-------------------|
B|----------18----18~--|-------17~-----------------------|-------------------|
G|-------------19------|----15-----15~-------------------|-------------------|
D|---------------------|-17---------------15p12----15p12-|----15-19~---------|
A|---------------------|---------------12-------12-------|-17-------17-------|
D|---------------------|---------------------------------|-------------------|

e|----------------|---------------------------------|------------------------|
B|----------------|-------17~-----------------------|------------------------|
G|----------------|----15-----15~-------------------|------------------------|
D|-------------17-|-17---------------15p12----15p12-|----15-19~--------------|
A|-15-15-17-19----|---------------12-------12-------|-17-------17------------|
D|----------------|---------------------------------|------------------------|

(1:53)
e|----------------------------------|-----15-----13-----12--10/12\10---------|
B|----------------------------------|----------------------------------------|
G|----------9-12-12b-12-9-9b-9-9b-9-|-/15----/14----/12-----10/12\10---------|
D|----11-12-------------------------|----------------------------------------|
A|-12-------------------------------|----------------------------------------|
D|----------------------------------|----------------------------------------|

                                                    (2:05)
e|-10/12\10-8---------------------------|--------15-|----------12-15b--------|
B|-------------13b-13-10--------15-13---|-----------|----14-15--------17-17b-|
G|-10/12\10-------------10-12/14-----14-|-----14----|-/14--------------------|
D|--------------------------------------|-/12-------|------------------------|
A|--------------------------------------|-----------|------------------------|
D|--------------------------------------|-----------|------------------------|

e|--------20-20----20----20--20b-17-17b-17-15----------------17----17--------|
B|-17-17b-------17b---17b---------------------18-17-18-17-15----15-----------|
G|---------------------------------------------------------------------------|
D|---------------------------------------------------------------------------|
A|---------------------------------------------------------------------------|
D|---------------------------------------------------------------------------|

************************************

| *   palm mute
| /   slide up
| \   slide down
| h   hammer-on
| p   pull-off
| ~   vibrato
| b   Bend

************************************
Добавлено: 21.05.2012
Другие материалы по этой песне:
  • Аккорды и текст

Страница создана 21.05.2012
http://primanota.ru/orphaned-land/in-thy-never-ending-way-epilogue-chords.htm
Привет, Гость.
Предлагаем пройти революционный курс по гитаре.
Подарок от PrimaNota.Ru, забирай!