PrimaNota.ru - самый крупный в мире бесплатный архив песенных текстов, аккордов, табулатур и нот


Ornella Vanoni - Lappuntamento English Version - аккорды и текст, видео

Регистрация Запомнить меня
Войти через:  Facebook Google Twitter Vk Yandex Mail.ru

Ornella Vanoni - Lappuntamento English Version - аккорды и текст, видео

Печатать
Просмотров: 52
Уроки эстрадного вокала в Санкт-Петербурге
Lappuntamento English Version
Ornella Vanoni
Standard Tuning EADGBe 


Intro: 

|-3-1---|
|-----3-|
|-------|
|-------|
|-------|
|-------|

Riff 1:

|-3------5-------5----7-------7----5-------5---|
|---5------5-------5----5-------5----5---------|
|-----5------5------------5------------5-------|
|-5------5-----5------5-----5------5-----5-----|
|----------------------------------------------|
|----------------------------------------------| (x2)

Riff 2:

|-5------7-------7----8-------8----7-------7---|
|---6------6-------6----6-------6----6---------|
|-----7------7------------7------------7-------|
|-5------5-----5------5-----5------5-----5-----|
|----------------------------------------------|
|----------------------------------------------| (x2)

Riff 3:

|-3------5-------5----6-------6----|
|---5------5-------5----5-------5--|
|-----5------5------------5--------|
|-5------5-----5------5-----5------|
|----------------------------------|
|----------------------------------|

The play:


intro:
F  G  C  A  D7


Verse 1:

Riff1 Riff2
I was wrong so many times now that I already know
Riff 2 Riff1
today I'm almost certainly wrong about you
Riff 1 Riff2
but once more what can change my life ...
Riff Riff 2 1
accept this strange appointment has been a madness!

Riff 1 Riff 2
I am sad among the people who are passing nearby
Riff Riff 2 1
but the nostalgia of seeing you again it is stronger than weeping:
Riff 1 Riff 2
this sun shines on on my face a sign of hope.
Riff Riff 2 3
I am waiting when suddenly You appear in, the distance!


Chorus 1: 

F                G               C       C9
Love, make it soon, I can not resist ...
F                 G               C               A       D7
if you do not come I do not exist, do not exist, do not exist ...


[* Note: the rest of the song is a half step up]


Verse 2: 

Riff 1 Riff 2
It changed the time and it's raining but only to wait
Riff Riff 2 1
I do not care what the world thinks I do not even want to go.
Riff 1 Riff 2
I look inside and I wonder but I feel nothing;
Riff Riff 2 3
I am just a hope lost among the people.


Chorus 2: 

F               G             C     C9
Love is already late and I can not resist ...
F                 G               C              A       D7
if you do not come I do not exist, do not exist, do not exist ...


Verse 3:

Riff 1 Riff 2
lights, cars, shop windows, streets everything so confusing
Riff Riff 2 1
my shadow is tired of following me the day dies slowly.
Riff 1 Riff 2
I just have to go home to my sad life
Riff Riff 2 3
this life that I wanted to give you the 'have crumbled between his fingers.


Chorus 3: 

F             G            C     C9
I love forgiveness but can not resist ...
F                  G               C             A       D7
now forever I do not exist, do not exist, do not exist ...



[Play intro as outro]



(End)
Добавлено: 02.03.2016
Вам также может быть интересно:
Другие материалы по этой песне:
  • Аккорды и текст

Страница создана 02.03.2016
http://primanota.ru/ornella-vanoni/lappuntamento-english-version-chords.htm
Привет, Гость.
Предлагаем пройти революционный курс по гитаре.
Подарок от PrimaNota.Ru, забирай!