PrimaNota.ru - самый крупный в мире бесплатный архив песенных текстов, аккордов, табулатур и нот


Origin - The Burner - таба, видео

Регистрация Запомнить меня
Войти через:  Facebook Google Twitter Vk Yandex Mail.ru

Origin - The Burner - таба, видео

Печатать
Просмотров: 99
Уроки эстрадного вокала в Санкт-Петербурге
Tuning B F# B E G# C#

Various explosions and decimation (0:00)

RIFF 1 (0:14) play 4 times
|------------------------------------------------------------------||
|------------------------------------------------------------------||
|-8------11--12--8------12--11-/12--8------11--12--15------14--17--||
|-7------10--11--7------11--10-/11--7------10--11--14------13--16--||
|-6--0-0-9---10--6--0-0-10--9--/10--6--0-0-9---10--13--0-0-12--15--||
|------------------------------------------------------------------||
     . .            . .                . .             . .

RIFF 2 (0:29) play 4 times
|---------------------------------------------------------------------|
|-161616161616161616-----161616-----161616-----161616161616161616-----|
|---------------------------------------------------------------------|
|---------------------------------------------------------------------| gtr 1
|---------------------------------------------------------------------|
|--------------------000--------000--------000--------------------000-|
                     ...        ...        ...                    ...
|---------------------------------------------------------------------|
|---------------------------------------------------------------------|
|---------------------------------------------------------------------|
|-161616161616161616-----161616-----161616-----161616161616161616-----| gtr 2
|-181818181818181818-----181818-----181818-----181818181818181818-----|
|--------------------000--------000--------000--------------------000-|
                     ...        ...        ...                    ...


--------------------------||
--------------------------||
--------------------------||
--------------------------||
-181818181814171514-------||
-------------------161413-||

Riff 1 x 1 (0:45)
Riff 2 x 1 (1:00)


RIFF 3 (1:15) play 8 times
|--------------------------------------------------------------||
|--------------------------------------------------------------||
|--------------------------------------------------------------||
|--------------------------------------------------------------||
|-------------------------------------181818181814171514-------||
|-00-00-00-00-00-00-00-00-00-00-00-00-------------------161413-||
  .. .. .. .. .. .. .. .. .. .. .. ..
RIFF 4 (1:46) play 4 times
|---------------------------------------|
|---------------------------------------|
|-------------------13\-----------------|
|-131313151515161616--------------------|
|-----------------------2-4-2-4-2-4-2-4-|
|-----------------------2-4-2-4-2-4-2-4-|
                        . . . . . . . .
 -------------------------------------------------||
 -------------------------------------------------||
 -------------------------------------------------||
 -8p6p5------7p5p4------10p8p7-------11p9p8-------||
 ------8p6p5------7p5p4-------10p8p7-------11p9p8-||
 -------------------------------------------------||

on the third time guitar 1 plays...

RIFF 4 (1:54)
|----------------------------------------|
|----------------------------------------|
|-------------------16\------------------|
|-161616181818191919---------------------|
|------------------------2-4-2-4-2-4-2-4-|
|------------------------2-4-2-4-2-4-2-4-|
                         . . . . . . . .
--------------------------------------------------||
 -------------------------------------------------||
 -------------------------------------------------||
 -8p6p5------7p5p4------10p8p7-------11p9p8-------||
 ------8p6p5------7p5p4-------10p8p7-------11p9p8-||
 -------------------------------------------------||

RIFF 5 (2:02) guitar two
|---------------------------------------------------------|
|---------------------------------------------------------|
|-8------8------8------10-11--8------8------10-11--13-14--|
|-7------7------7-------9-10--7------7-------9-10--12-13--|
|-6------6------6-------8--9--6------6-------8--9--11-12--|
|----0-0----0-0----0-0-----------0-0----0-0---------------|
     . .    . .    . .           . .    . .

RIFF 5 guitar two                 last time
|---------------------------------------------------------||
|---------------------------------------------------------||
|-8------8------8------10-11--8------8------13-14--16-17--||
|-7------7------7-------9-10--7------7------12-13--15-16--||
|-6------6------6-------8--9--6------6------11-12--14-15--||
|----0-0----0-0----0-0-----------0-0----0-0---------------||
     . .    . .    . .           . .    . .

RIFF 5 guitar one      first two times / same as guitar two
|---------------------------------------------------------|
|---------------------------------------------------------|
|-8------8------8------10-11--8------8------10-11--13-14--|
|-7------7------7-------9-10--7------7-------9-10--12-13--|
|-6------6------6-------8--9--6------6-------8--9--11-12--|
|----0-0----0-0----0-0-----------0-0----0-0---------------|
     . .    . .    . .           . .    . .
RIFF 5 guitar one                 third time
|---------------------------------------------------------|
|---------------------------------------------------------|
|-14-----14-----14-----13-14--14-----14-----13-14--16-17--|
|-13-----13-----13-----12-13--13-----13-----12-13--15-16--|
|-12-----12-----12-----11-12--12-----12-----11-12--14-15--|
|----0-0----0-0----0-0-----------0-0----0-0---------------|
     . .    . .    . .           . .    . .

RIFF 5 guitar one                  last time
|---------------------------------------------------------||
|---------------------------------------------------------||
|-14-----14-----14-----16-17--14-----14-----16-17--19-20--||
|-13-----13-----13-----15-16--13-----13-----15-16--18-19--||
|-12-----12-----12-----14-15--12-----12-----14-15--17-18--||
|----0-0----0-0----0-0-----------0-0----0-0---------------||
     . .    . .    . .           . .    . .

End (2:20)

Tab Legend
. - palm mute
\ - slide down to
/ - slide up to
h - hammer on
t - tap
ph - pinched harmonic
^ - Hold bend
r release bend
~ - vibrato bend
() - ghost note, sustained note
" - tremolo note
b - Bend
f - full bend
h - half bend
q - quarter bend
^ - Hold bend
r - release bend
Добавлено: 04.11.2013
Другие материалы по этой песне:

Страница создана 06.04.2012
http://primanota.ru/origin/the-burner-chords.htm
Привет, Гость.
Предлагаем пройти революционный курс по гитаре.
Подарок от PrimaNota.Ru, забирай!