PrimaNota.ru - самый крупный в мире бесплатный архив песенных текстов, аккордов, табулатур и нот


Origa - Inner Universe Ghost In The Shell Theme - таба, видео

Регистрация Запомнить меня
Войти через:  Facebook Google Twitter Vk Yandex Mail.ru

Origa - Inner Universe Ghost In The Shell Theme - таба, видео

Печатать
Просмотров: 185
-----------------------------------------------------------------
Inner Universe - Origa (Official Website: http://www.r-s.co.jp/origa/ )
-----------------------------------------------------------------
Tabbed by: mjohnson1915

Tuning: Standard, Capo 1st Fret

INTRO ("Aнгелы...aria gloris.")

e|-0-----------------0-3-3-2-5-5-5-|
B|-0-----------------0-5-3-5-5-5-5-|
G|-0-4-3-5-7-4-3-5-7-0-0-0-2-0-0-0-|
D|-2-2-1-3-5-2-1-3-5-2-2-2-0-0-0-0-|
A|-2-2-1-3-5-2-1-3-5-2-0-3-0-2-2-2-|
E|-0-0-0-0-0-0-0-0-0-0-3-0-0-0-0-0-|

CHORUS - Chords ("I am calling...остаться дольше.")

e|-0-3-0-2-3-3-5-|
B|-1-5-0-1-3-5-5-|
G|-0-0-0-2-4-0-0-|
D|-2-2-2-0-4-2-0-|
A|-0-0-2-0-2-0-2-|
E|-0-3-0-0-2-3-0-|

CHORUS - Vocal Harmony ("I am calling...остаться дольше.")

e|-0-3-5~12~12~10-7~7-12-0-10~10~8--5~3-5-8-10-12-7\3~5~|
B|-----5~13~13~12-8~8-12-8-12~12~10-7~3-5-8-10-12-8\3~5~|
G|------------------------------------------------------|
D|------------------------------------------------------|
A|------------------------------------------------------|
E|------------------------------------------------------|

BRIDGE 1 ("Stand alone...real anymore.")

e|-2-x-|
B|-0-3-|
G|-0-2-|
D|-2-0-|
A|-2-2-|
E|-0-0-|

BRIDGE 2 - Chords ("Бесконечный бег...Бесконечный бег.")

e|-2-x-0-x-x-0-0-0-0-0-2-3-5-5-|
B|-0-3-5-x-x-0-0-0-0-1-3-3-5-5-|
G|-0-2-4-2-4-0-0-0-0-0-2-5-7-7-|
D|-2-0-x-2-4-2-4-5-7-2-4-5-7-7-|
A|-2-2-4-0-0-2-2-3-5-0-2-3-5-5-|
E|-0-0-0-2-4-0-0-0-0-0-2-3-5-5-|

BRIDGE 2 - Vocal Harmony ("...Бесконечный бег.")

e|-5~7-7-7-5-8-5~|
B|-3~5-7-7-5-8-5~|
G|---------------|
D|---------------|
A|---------------|
E|---------------|

| /  slide up
| \  slide down
| h  hammer-on
| p  pull-off
| ~  vibrato
| +  harmonic
| x  Mute note
Добавлено: 25.09.2013
Другие материалы по этой песне:
  • Аккорды и текст

Страница создана 25.09.2013
http://primanota.ru/origa/inner-universe-ghost-in-the-shell-theme-chords.htm
Привет, Гость.
Предлагаем пройти революционный курс по гитаре.
Подарок от PrimaNota.Ru, забирай!