PrimaNota.ru - самый крупный в мире бесплатный архив песенных текстов, аккордов, табулатур и нот


Orianthi - Sunshine Of Your Love - бас-таба, видео

Регистрация Запомнить меня
Войти через:  Facebook Google Twitter Vk Yandex Mail.ru

Orianthi - Sunshine Of Your Love - бас-таба, видео

Печатать
Просмотров: 88
Авторы: Pete Brown, Eric Clapton, Jack Bruce

Made by Gwangeun Kim
12.07.08 Seoul, Korea

Intro
|--------------------------|
|----------------------5---|
|--------------------7----7|
|12-12-10-12---7-6-5-------| x4

Verse 1
|--------------------------|
|----------------------5---|
|--------------------7----7|
|12-12-10-12---7-6-5-------| x4

|----------------------5---|
|--------------------7----7|
|12-12-10-12---7-6-5-------|
|--------------------------| x2

|--------------------------|
|----------------------5---|
|--------------------7----7|
|12-12-10-12---7-6-5-------|

Pre-chorus
|----------------------|
|----------------------|
|----------------------|
|7-77---10-1010---5-55-| x3

|----------------|
|----------------|
|----------------|
|7777777777777777|

|--------------------------|
|----------------------5---|
|--------------------7----7|
|12-12-10-12---7-6-5-------|

Verse 2
|--------------------------|
|----------------------5---|
|--------------------7----7|
|12-12-10-12---7-6-5-------| x4

|----------------------5---|
|--------------------7----7|
|12-12-10-12---7-6-5-------|
|--------------------------| x2

|--------------------------|
|----------------------5---|
|--------------------7----7|
|12-12-10-12---7-6-5-------|

Pre-chorus
|------------------------|
|------------------------|
|------------------------|
|7-77---10-1010---5-55---| x3

|----------------|
|----------------|
|----------------|
|7777777777777777|

Guitar-solo
|--------------------------|
|----------------------5---|
|--------------------7----7|
|12-12-10-12---7-6-5-------| x4

|----------------------5---|
|--------------------7----7|
|12-12-10-12---7-6-5-------|
|--------------------------| x2

|--------------------------|
|----------------------5---|
|--------------------7----7|
|12-12-10-12---7-6-5-------| x2

|------------------------|
|------------------------|
|------------------------|
|7-77---10-1010---5-55---| x3

|----------------|
|----------------|
|----------------|
|7777777777777777|

Bridge
|-----------------------------|
|-----------------------------|
|-----------------------------|
|-----------------------------|x4

Verse 3
|--------------------------|
|----------------------5---|
|--------------------7----7|
|12-12-10-12---7-6-5-------| x4

|----------------------5---|
|--------------------7----7|
|12-12-10-12---7-6-5-------|
|--------------------------| x2

|--------------------------|
|----------------------5---|
|--------------------7----7|
|12-12-10-12---7-6-5-------| x2

Pre-chorus
|------------------------|
|------------------------|
|------------------------|
|7-77---10-1010---5-55---| x5

|----------------|
|----------------|
|----------------|
|7777777777777777|

Outro
|----------------|
|----------------|
|----------------|
|7777777777777777| x2

|--------------------|
|--------------------|
|------------12141214|
|777777777777--------| x2

|---------------|
|---------------|
|---------------|
|7--------------|
Добавлено: 22.07.2013
Другие материалы по этой песне:
  • Аккорды и текст

Страница создана 22.07.2013
http://primanota.ru/orianthi/sunshine-of-your-love-chords.htm
Привет, Гость.
Предлагаем пройти революционный курс по гитаре.
Подарок от PrimaNota.Ru, забирай!