PrimaNota.ru - самый крупный в мире бесплатный архив песенных текстов, аккордов, табулатур и нот


Orianthi - Feels Like Home - аккорды и текст, видео

Регистрация Запомнить меня
Войти через:  Facebook Google Twitter Vk Yandex Mail.ru

Orianthi - Feels Like Home - аккорды и текст, видео

Печатать
Просмотров: 182
Уроки эстрадного вокала в Санкт-Петербурге
Feels Like Home
Orianthi
Orianthi
Feels Like Home
Believe
2009
Submitted by: paramore_fans@yahoo.com

Key: D

Tuning: Drop D

Chords used: Drop D only
D -    000xxx
G -    555xxx
Em -   222xxx
D/F# - 454xxx
A -    777xxx
X -    x355xx

Chords used: for Standard EADGBe
D -    xx0232
G -    320033
Em -   022000
D/F# - 2x023x
A -    x02220
C -    x32010


Intro: D--G--Em--A--


Orianthi Solo:
e|--------------------------------------9--9-10--|
B|-8--8-7--7-------------8--8-7--10-10-----------|
G|------------9--9-7--7--------------------------|
D|-----------------------------------------------|
A|-----------------------------------------------|
D|-----------------------------------------------|

e|-7--7p5-----10----9-10-9---------------------------|
B|---------10----10--------10------------------------|
G|----------------------------9p7h9------------------|
D|----------------------------------7p5-4---------4--|
A|----------------------------------------5h7-5h7----|
D|---------------------------------------------------|


Verse 1:
D              G
  Going to California I
                   Em
got my bags by the door
                 A
And I'm ready to leave
D                    G
  So yeah I'm moving forward
                 Em
I'm on my way to find
                A
where I need to be


Refrain 1:
G                    D/F#
  Cause every moment now
                  G
is what I believe somehow
            A
Would be my reality


Chorus 1:
D
  Cause I still wanna
         G
felling minded
                     Em
The only way I can define it
                G
Cause yeah, I'm on my own
   A                  D
it somehow feels like home
                         G
There's no other feeling like it
                       Em
So real that I can't deny it
        G
I don't feel alone
   A
It somehow feels like home


Mini Solo: D--G--Em--A--

Orianthi Solo:
e|--------------------------------------9--9-10--|
B|-8--8-7--7-------------8--8-7--10-10-----------|
G|------------9--9-7--7--------------------------|
D|-----------------------------------------------|
A|-----------------------------------------------|
D|-----------------------------------------------|

e|-7--7p5-----10----9-10-9---------------------------|
B|---------10----10--------10------------------------|
G|----------------------------9p7h9------------------|
D|----------------------------------7p5-4---------4--|
A|----------------------------------------5h7-5h7----|
D|---------------------------------------------------|


Verse 2:
D            G
  Walking in California making
            Em              A
my way down Sunset Boulevard
D                  G
  Everyone looks familiar so perfect
       Em                     A
like a picture from a magazine


Refrain 2:
G                    D/F#
  Cause every moment now
is what I  believe
    G
somehow will
        A
be my Reality
All right now


(Repeat Chorus 1)


Bridge:
C                            G
  They have never crossed my mind
                        D
I'll take a chance everytime
            D     C  D
And I will spread my wings
        D     C  D
I will spread my wings
C                           G
  I've never been afraid to try
                      A
put everything on the line
On the line Oooon the line
well alright right now


Chorus 2:
D
  Cause I still wanna
         Em
felling minded
                     D/F#
The only way I can define it
                G
Cause yeah, I'm on my own
           A          D
it somehow feels like home
                         Em
There's no other feeling like it
                       D/F#
So real that I can't deny it
        G
I don't feel alone


(Repeat While doing a Guitar Solo)


Outro: while doing Guitar Solo
D            Em             D/F#
  It somehow feels like home
G                     D   Em
   Somehow feels like home
      D/F#
Mmhmmm
G                          D
Somehow feels like home to me
Walking in California making my way
     Em          A(hold)
down Sunset Boulevard
Добавлено: 29.06.2012
Другие материалы по этой песне:
  • Аккорды и текст

Страница создана 29.06.2012
http://primanota.ru/orianthi/feels-like-home-chords.htm
Привет, Гость.
Предлагаем пройти революционный курс по гитаре.
Подарок от PrimaNota.Ru, забирай!