PrimaNota.ru - самый крупный в мире бесплатный архив песенных текстов, аккордов, табулатур и нот


Ordinary Boys - Don'T Live Too Fast - текст песни, бас-таба, видео

Регистрация Запомнить меня
Войти через:  Facebook Google Twitter Vk Yandex Mail.ru

Ordinary Boys - Don'T Live Too Fast - текст песни, бас-таба, видео

Печатать
Просмотров: 87
Intro

G|--------------------------|-----------------------------------|
D|--------------------------|-----------------------------------|
A|----7\---5-5--5-5--7\---5-|-------------7\---5-5--5-5--7\---5-|
E|--8-------------------3---|-5-5--5-5--8-------------------3---|


Verse

G|-------------------------------------|-----------------------------------|
D|------------------------7-7----------|-----------------------------------|
A|---------------7-7---5-5-5-5---------|-------------7\---5-5--5-5--7\---5-|
E|-5-5--5-5--8h10-8--------------3-0-3-|-5-5--5-5--8-------------------3---|

G|-------------------------------------|------------------------------------|
D|------------------------7-7----------|------------------------------------|
A|---------------7-7---5-5-5-5-5-------|---------------7\---5-5--5-5--7\---5|
E|-5-5--5-5--8h10-8--------------3-0-3-|-5-5--5-5--8h10------------------3--|


Chorus

G|---------------------------------------3555553--------------------|
D|--------------------------------3333333-------53-3333333455555555-|
A|-3-3-3-3-2-2-2-2-1-1-1-1------------------------------------------|
E|-------------------------1-1-1-1----------------------------------|

G|---------------------------------------3555553-------------|
D|--------------------------------3333333-------53555555555\-|
A|-3-3-3-3-2-2-2-2-1-1-1-1-----------------------------------|
E|-------------------------1-1-1-1---------------------------|


Bridge

G|--------------------------|-----------------------------------|
D|--------------------------|-----------------------------------|
A|----7\---5-5--5-5--7\---5-|-------------7\---5-5--5-5--7\---5-|
E|--8-------------------3---|-5-5--5-5--8-------------------3---|

G|------------------------------------------------------------|
D|-----10-8-----------10-8-----------10-8-----------10-8------|
A|-8-8------10-8--7-7------10-8--8-8------10-8--7-7------10-8-|
E|------------------------------------------------------------|

G|----------------------------------------------------|
D|-----10-8-----------10-8-----------10-8-------------|
A|-8-8------10-8--7-7------10-8--8-8------10-8--7\--3-|
E|----------------------------------------------------|


Verse 2

G|------------------------------------|-----------------------------------|
D|------------------------7-7---------|-----------------------------------|
A|---------------7-7---5-5-5-5--------|-------------7\---5-5--5-5--7\---5-|
E|-5-5--5-5--8h10-8-------------3-0-3-|-5-5--5-5--8-------------------3---|

G|------------------------------------|------------------------------------|
D|------------------------7-7---------|------------------------------------|
A|---------------7-7---5-5-5-5--------|---------------7\---5-5--5-5--7\---5|
E|-5-5--5-5--8h10-8-------------3-0-3-|-5-5--5-5--8h10------------------3--|



Chorus

G|---------------------------------------3555553--------------------|
D|--------------------------------3333333-------53-3333333455555555-|
A|-3-3-3-3-2-2-2-2-1-1-1-1------------------------------------------|
E|-------------------------1-1-1-1----------------------------------|

G|---------------------------------------3555553-------------|
D|--------------------------------3333333-------53555555555\-|
A|-3-3-3-3-2-2-2-2-1-1-1-1-----------------------------------|
E|-------------------------1-1-1-1---------------------------|


Interlude

G|------------------------------------|------------------------------------|
D|------------------------7-7---------|------------------------------------|
A|---------------7-7---5-5-5-5--------|---------------7\---5-5--5-5--7\---5|
E|-5-5--5-5--8h10-8-------------3-0-3-|-5-5--5-5--8h10------------------3--|

G|------------------------------------------------------------|
D|-----10-8-----------10-8-----------10-8-----------10-8------|
A|-8-8------10-8--7-7------10-8--8-8------10-8--7-7------10-8-|
E|------------------------------------------------------------|

G|--------------------------------------------------|
D|-----10-8-----------10-8-----------10-8-----------|
A|-8-8------10-8--7-7------10-8--8-8------10-8--7-5-|
E|--------------------------------------------------|


Final Chorus

G|---------------------------------------------------------------------|
D|---------------------------------------------------------------------|
A|-3-3-3-3-2-2-2-2-1-1-3-1-0-----0-1-3-3-3-3-2-2-2-2-1-1-3-1-0-----0-1-|
E|---------------------------1-3-------------------------------1-3-----|

G|------------------------------------------3555553-------------|------|
D|-----------------------------------3333333-------53555555555\-|------|
A|-3-3-3-3-2-2-2-2-1-1-3-1-0-----0-1----------------------------|------|
E|---------------------------1-3--------------------------------|-5-8\-|
Добавлено: 04.08.2013
Вам также может быть интересно:
Другие материалы по этой песне:
  • Аккорды и текст

Страница создана 17.03.2012
http://primanota.ru/ordinary-boys/dont-live-too-fast-chords.htm
Привет, Гость.
Предлагаем пройти революционный курс по гитаре.
Подарок от PrimaNota.Ru, забирай!