PrimaNota.ru - самый крупный в мире бесплатный архив песенных текстов, аккордов, табулатур и нот


Orden Ogan - Things We Believe In - таба, видео

Регистрация Запомнить меня
Войти через:  Facebook Google Twitter Vk Yandex Mail.ru

Orden Ogan - Things We Believe In - таба, видео

Печатать
Просмотров: 124
-------------------------------------------------------------------------------
                       Things We Believe In - Orden Ogan
-------------------------------------------------------------------------------
Tabbed by: The Revanchist
E-mail: Revan_TSL@hotmail.com

Tuning: E A D G B e

************************************
| ~   vibrato
************************************

e|---------------------------------------------------------------------------|
B|------------------------------------------------6--6-----------------------|
G|---7--5-7~~-------------5---------7--5-7~~-------------7-5-----------------|
D|------------5--7-8-8~~----7----------------5--7------------7~~-------------|
A|----------------------------8~~-8------------------------------------------|
E|---------------------------------------------------------------------------|



Hi guys and girls. This is my first tab ever. It's not really interesting or that good, but I noticed it
wasn't on ultimate-guitar, so I figured, why not? 

Hope you sounds good. 

If you have any suggestions or improvements, let me know and I will update it. Cheers :)
Добавлено: 22.12.2015
Другие материалы по этой песне:

Страница создана 22.12.2015
http://primanota.ru/orden-ogan/things-we-believe-in-chords.htm
Привет, Гость.
Предлагаем пройти революционный курс по гитаре.
Подарок от PrimaNota.Ru, забирай!