PrimaNota.ru - самый крупный в мире бесплатный архив песенных текстов, аккордов, табулатур и нот


Orchid - He Who Walks Alone - таба, видео

Регистрация Запомнить меня
Войти через:  Facebook Google Twitter Vk Yandex Mail.ru

Orchid - He Who Walks Alone - таба, видео

Печатать
Просмотров: 80
Tabed by: "Rodmanpuma1"


I DO NOT OWN THIS SONG, I JUST WANTED TO TAB IT FOR EVERYONE WHO WANTS TO PLAY IT.


INTRO

D#|---------------------------------------|
A#|---------------------------------------|
F#|---------------------------------------|
C#|---------------------------------------|
G#|----------------------------1h3p1p0----|
C#|--2--2--2--2--0h2--2-----2-----------5-|
                                                 Repeat x3

Ds|---------------------------------------|
As|---------------------------------------|
Fs|---------------------------------------|
Cs|---------------------------------------|
Gs|---------------------------8--8--7--5--|
Cs|--2--2--2--2--0h2--2----2--8--8--7--5--|

Then when he starts to sing:


   Gaze of steel and stride of thunder...
Ds|--------------------------------|
As|---------------------3----------|
Fs|-------------2--3b4-----2b3-----|
Cs|--1\2--2--5------------------5--|
Gs|--------------------------------|
Cs|--------------------------------|

D#|---------------------------------------|
A#|---------------------------------------|
F#|---------------------------------------|
C#|---------------------------------------|
G#|----------------------------1h3p1p0----|
C#|--2--2--2--2--0h2--2-----2-----------5-|

   All that stands comes crashing under...
Ds|----------------------------|
As|-3h5-3h5-3h5-3------3-------|
Fs|---------------2\4----2b3---|
Cs|--------------------------5-|
Gs|----------------------------|
Cs|----------------------------|


D#|---------------------------------------|
A#|---------------------------------------|
F#|---------------------------------------|
C#|---------------------------------------|
G#|----------------------------1h3p1p0----|
C#|--2--2--2--2--0h2--2-----2-----------5-|

   He does wander like a spirit lost...
Ds|----------------------------------|
As|----------------------------------|
Fs|-------------2--2b3-3r2--0-0h2-0--|
Cs|--1\2--2--5-----------------------|
Gs|----------------------------------|
Cs|----------------------------------|


D#|---------------------------------------|
A#|---------------------------------------|
F#|---------------------------------------|
C#|---------------------------------------|
G#|----------------------------1h3p1p0----|
C#|--2--2--2--2--0h2--2-----2-----------5-|

  Burning soul for he shall know no other...
Ds|-------------------------------------|
As|--3\5--5--5p3-------------3----------|
Fs|---------------4--2--2h4-----2b3--0--|
Cs|-------------------------------------|
Gs|-------------------------------------|
Cs|-------------------------------------|


D#|---------------------------------------|
A#|---------------------------------------|
F#|---------------------------------------|
C#|---------------------------------------|
G#|----------------------------1h3p1p0----|
C#|--2--2--2--2--0h2--2-----2-----------5-|

Ds|---------------------------------------|
As|---------------------------------------|
Fs|---------------------------------------|
Cs|---------------------------------------|
Gs|---------------------------8--8--7--5--|
Cs|--2--2--2--2--0h2--2----2--8--8--7--5--|






CHORUS  ( | = Picking)  Repeat 2 Times


       |Let ring   |  | |Let ring 
Ds|------------------------
As|------------------------
Fs|------------------------
Cs|----9-----------9-12\7--
Gs|----7-----------7-10\5--
Cs|------------------------
       |Let ring   |  | |Let ring   |  | |Let ring   | |
Ds|----------------------------------------------------------------------------------
As|----------------------------------------------------------------------------------
Fs|----------------------------------------------------------------------------------
Cs|----9-----------9-12\7-----------7--9\5-----------5--7\2--------------------------
Gs|----7-----------7-10\5-----------5--7\3-----------3--5\0-----------8--8--7--5-----
Cs|-------------------------------------------------------------------8--8--7--5-----


D#|---------------------------------------|
A#|---------------------------------------|
F#|---------------------------------------|
C#|---------------------------------------|
G#|----------------------------1h3p1p0----|
C#|--2--2--2--2--0h2--2-----2-----------5-|

Ds|---------------------------------------|
As|---------------------------------------|
Fs|---------------------------------------|
Cs|---------------------------------------|
Gs|---------------------------8--8--7--5--|
Cs|--2--2--2--2--0h2--2----2--8--8--7--5--|


Добавлено: 01.10.2014
Другие материалы по этой песне:
  • Аккорды и текст

Страница создана 01.10.2014
http://primanota.ru/orchid/he-who-walks-alone-chords.htm
Привет, Гость.
Предлагаем пройти революционный курс по гитаре.
Подарок от PrimaNota.Ru, забирай!