PrimaNota.ru - самый крупный в мире бесплатный архив песенных текстов, аккордов, табулатур и нот


Orchid - Epilogue Of A Carcrash - таба, видео

Регистрация Запомнить меня
Войти через:  Facebook Google Twitter Vk Yandex Mail.ru

Orchid - Epilogue Of A Carcrash - таба, видео

Печатать
Просмотров: 80
Orchid - Epilogue Of A Carcrash - Chaos Is Me [1999]
Tabbed by bevinkarnes

Tuning: Eb-Ab-Db-Gb-Bb-eb

1
eb||--------------------------||
Bb||--------------------------||
Gb||9---9-10-9---7---5---4---2||
Db||x---x-x--x---x---x---x---x||
Ab||7---7-8--7---5---3---2---0||
Eb||--------------------------||

2
eb||---------||
Bb||---------||
Gb||----5---4||
Db||2---x---x||
Ab||x---3---2||
Eb||0--------||

3
eb||-------------------||
Bb||-------------------||
Gb||9---7---5---4-5-4-2||
Db||x---x---x---x-x-x-x||
Ab||7---5---3---2-3-2-0||
Eb||-------------------||

4
eb||-------------||
Bb||-------------||
Gb||-------------||
Db||5---4---7---4||
Ab||x---x---x---x||
Eb||3---2---5---2||

1 x4 (clean) (6/8)
2 x4 (clean) (6/8)
1 x4 (clean) (6/8)
2 x4 (clean) (6/8)
3 x2 (distorted) (6/8)
2 x4 (distorted) (4/4)
3 x2 (distorted) (6/8)
2 x4 (distorted) (4/4)
4 x4 (distorted) (4/4)
1 x4 (distorted) (4/4, 6/8, 4/4)
2 x4 (distorted) (4/4)

end with
eb||(0)--|
Bb||(0)--|
Gb||-9---|
Db||-9---|
Ab||-7---|
Eb||-0---|
Добавлено: 15.06.2013
Другие материалы по этой песне:

Страница создана 03.06.2012
http://primanota.ru/orchid/epilogue-of-a-carcrash-chords.htm
Привет, Гость.
Предлагаем пройти революционный курс по гитаре.
Подарок от PrimaNota.Ru, забирай!