PrimaNota.ru - самый крупный в мире бесплатный архив песенных текстов, аккордов, табулатур и нот


Orchestral Manoeuvres In The Dark - Sailing on The Seven Seas - текст песни, бас-таба, видео

Регистрация Запомнить меня
Войти через:  Facebook Google Twitter Vk Yandex Mail.ru

Orchestral Manoeuvres In The Dark - Sailing on The Seven Seas - текст песни, бас-таба, видео

Печатать
Просмотров: 40
Авторы музыки: Stuart Kershaw, Andy McCluskey
Авторы текста: Stuart Kershaw, Andy McCluskey
Sailing On The Seven Seas
Released by Orchestral Manoeuvres In The Dark in 1991 reached number 3 UK.
Bass performance Andy McCluskey. Welcome to my Tab. Having listened and 
listened to this song, this is how I see the bass line. Hope you agree.
Comments bass254@btinternet.com 

Intro:                      (Play This x4)
                       .               .
G|-------|-------------------------------
D|-DRUM--|-------------------------------
A|-START-|-------------------------------
E|-------|-3-5--5-5--3-5---5-5--5-5--3-5-

Verse 1:
               .               . (Play This x4)
G|-------------------------------
D|-------------------------------
A|-------------------------------
E|-3-5--5-5--3-5---5-5--5-5--3-5-

               .               . (Play This x2)
G|-------------------------------
D|-------------------------------
A|-3-5--5-5--3-5---5-5--5-5--3-5-
E|-------------------------------

               .               . (Play This x2)
G|-------------------------------
D|-------------------------------
A|-------------------------------
E|-3-5--5-5--3-5---5-5--5-5--3-5-

               .               . (Play This x2)
G|-------------------------------
D|-------------------------------
A|-3-5--5-5--3-5---5-5--5-5--3-5-
E|-------------------------------

               .               . (Play This x2)
G|-------------------------------
D|-------------------------------
A|-------------------------------
E|-3-5--5-5--3-5---5-5--5-5--3-5-

Chorus:
G|--------------------------------------------------------------
D|--------------------------------------------------------------
A|-3-5--5-5--3-5---5-7--7-7--5-7--------------------------------
E|-------------------------------3-5--5-5--3-5-4--0-2--2-2--0-2-

G|-------------------------------------------------------------
D|-------------------------------------------------------------
A|-3-5--5-5--3-5---5-7--7-7--5-7-------------------------------
E|-------------------------------3-5--5-5--3-5---5-5--5-5--3-5-

Verse 2:
               .               . (Play This x4)
G|-------------------------------
D|-------------------------------
A|-------------------------------
E|-3-5--5-5--3-5---5-5--5-5--3-5-

               .               . (Play This x2)
G|-------------------------------
D|-------------------------------
A|-3-5--5-5--3-5---5-5--5-5--3-5-
E|-------------------------------

               .               . (Play This x2)
G|-------------------------------
D|-------------------------------
A|-------------------------------
E|-3-5--5-5--3-5---5-5--5-5--3-5-

Repeat Chorus:

Solo:
               .               . (Play This x2)
G|-------------------------------
D|-------------------------------
A|-------------------------------
E|-3-5--5-5--3-5---5-5--5-5--3-5-

               .               .
G|-------------------------------
D|-------------------------------
A|-3-5--5-5--3-5---5-5--5-5--3-5-
E|-------------------------------

               .               . 
G|-------------------------------
D|-------------------------------
A|-------------------------------
E|-3-5--5-5--3-5---5-5--5-5--3-5-

               .               .             .               .
G|-------------------------------------------------------------
D|-------------------------------------------------------------
A|-3-5--5-5--3-5---5-7--7-7--5-7-------------------------------
E|-------------------------------3-5--5-5--3-5---5-5--5-5--3-5-

Verse 3:
               .               . (Play This z4)
G|-------------------------------
D|-------------------------------
A|-------------------------------
E|-3-5--5-5--3-5---5-5--5-5--3-5-

Repeat Chorus x2:

Outro:
               .               . (Repeat To Fade/End))
G|-------------------------------
D|-------------------------------
A|-------------------------------
E|-3-5--5-5--3-5---5-5--5-5--3-5-

------------------------------------------------------------------------
Добавлено: 19.05.2016
Вам также может быть интересно:
Другие материалы по этой песне:
  • Аккорды и текст

Страница создана 29.04.2012
http://primanota.ru/orchestral-manoeuvres-in-the-dark/sailing-on-the-seven-seas-chords.htm
Привет, Гость.
Предлагаем пройти революционный курс по гитаре.
Подарок от PrimaNota.Ru, забирай!